  0
SECTION
  2
HEADER
  9
$INSBASE
 10
0.0
20
0.0
  9
$REGENMODE
 70
     1
  9
$DRAGMODE
 70
     1
  9
$DIMTAD
 70
     1
  9
$EXTMIN
 10
-1050.000000
 20
-742.500000
 30
 0.0
  9
$EXTMAX
 10
1050.000000
 20
742.500000
 30
 0.0
  9
$LUPREC
 70
    3
  9
$AUPREC
 70
    3
  9
$LTSCALE
 40
26.250000
  0
ENDSEC
  0
SECTION
  2
TABLES
  0
TABLE
  2
LTYPE
 70
     6
  0
LTYPE
  2
CONTINUOUS
 70
    64
  3
SOLID
 72
    65
 73
     0
 40
0.0
  0
LTYPE
  2
DASHED2
 70
    64
  3
_ _ _ _ _ _ _ _ _ _ _ _ _ _ _ _ _ _ _ _ _ _ 
 72
    65
 73
     2
 40
0.5
 49
0.25
 49
-0.25
  0
LTYPE
  2
DASHED
 70
    64
  3
__ __ __ __ __ __ __ __ __ __ __ __ __ __ __
 72
    65
 73
     2
 40
0.75
 49
0.5
 49
-0.25
  0
LTYPE
  2
DASHEDX2
 70
    64
  3
____  ____  ____  ____  ____  ____  ____  __
 72
    65
 73
     2
 40
1.5
 49
1.0
 49
-0.5
  0
LTYPE
  2
DOT
 70
    64
  3
............................................
 72
    65
 73
     2
 40
0.25
 49
0
 49
-0.25
  0
LTYPE
  2
DASHDOT
 70
    64
  3
__ . __ . __ . __ . __ . __ . __ . __ . __ .
 72
    65
 73
     4
 40
1.0
 49
0.5
 49
-0.25
 49
0.0
 49
-0.25
  0
LTYPE
  2
CENTER
 70
    64
  3
____ _ ____ _ ____ _ ____ _ ____ _ ____ _ __
 72
    65
 73
     4
 40
2.0
 49
1.25
 49
-0.25
 49
0.25
 49
-0.25
  0
LTYPE
  2
DIVIDE
 70
    64
  3
__ . . __ . . __ . . __ . . __ . . __ . . __
 72
    65
 73
     6
 40
1.25
 49
0.5
 49
-0.25
 49
0.0
 49
-0.25
 49
0.0
 49
-0.25
  0
LTYPE
  2
PHANTOM2
 70
    64
  3
___ _ _ ___ _ _ ___ _ _ ___ _ _ ___ _ _ ___ 
 72
    65
 73
     6
 40
1.25
 49
0.625
 49
-0.125
 49
0.125
 49
-0.125
 49
0.125
 49
-0.125
  0
LTYPE
  2
DOTX2
 70
    64
  3
. . . . . . . . . . . . . . . . . . . . . . 
 72
    65
 73
     2
 40
0.5
 49
0
 49
-0.5
  0
ENDTAB
  0
TABLE
  2
LAYER
 70
   255
  0
LAYER
  2
0
 70
    64
 62
     7
  6
CONTINUOUS
  0
LAYER
  2
1
 70
    64
 62
     7
  6
CONTINUOUS
  0
LAYER
  2
2
 70
    64
 62
     7
  6
CONTINUOUS
  0
LAYER
  2
3
 70
    64
 62
     7
  6
CONTINUOUS
  0
LAYER
  2
4
 70
    64
 62
     7
  6
CONTINUOUS
  0
LAYER
  2
5
 70
    64
 62
     7
  6
CONTINUOUS
  0
LAYER
  2
6
 70
    64
 62
     7
  6
CONTINUOUS
  0
LAYER
  2
7
 70
    64
 62
     7
  6
CONTINUOUS
  0
LAYER
  2
8
 70
    64
 62
     7
  6
CONTINUOUS
  0
LAYER
  2
9
 70
    64
 62
     7
  6
CONTINUOUS
  0
LAYER
  2
10
 70
    64
 62
     7
  6
CONTINUOUS
  0
LAYER
  2
11
 70
    64
 62
     7
  6
CONTINUOUS
  0
LAYER
  2
12
 70
    64
 62
     7
  6
CONTINUOUS
  0
LAYER
  2
13
 70
    64
 62
     7
  6
CONTINUOUS
  0
LAYER
  2
14
 70
    64
 62
     7
  6
CONTINUOUS
  0
LAYER
  2
15
 70
    64
 62
     7
  6
CONTINUOUS
  0
LAYER
  2
16
 70
    64
 62
     7
  6
CONTINUOUS
  0
LAYER
  2
17
 70
    64
 62
     7
  6
CONTINUOUS
  0
LAYER
  2
18
 70
    64
 62
     7
  6
CONTINUOUS
  0
LAYER
  2
19
 70
    64
 62
     7
  6
CONTINUOUS
  0
LAYER
  2
20
 70
    64
 62
     7
  6
CONTINUOUS
  0
LAYER
  2
21
 70
    64
 62
     7
  6
CONTINUOUS
  0
LAYER
  2
22
 70
    64
 62
     7
  6
CONTINUOUS
  0
LAYER
  2
23
 70
    64
 62
     7
  6
CONTINUOUS
  0
LAYER
  2
24
 70
    64
 62
     7
  6
CONTINUOUS
  0
LAYER
  2
25
 70
    64
 62
     7
  6
CONTINUOUS
  0
LAYER
  2
26
 70
    64
 62
     7
  6
CONTINUOUS
  0
LAYER
  2
27
 70
    64
 62
     7
  6
CONTINUOUS
  0
LAYER
  2
28
 70
    64
 62
     7
  6
CONTINUOUS
  0
LAYER
  2
29
 70
    64
 62
     7
  6
CONTINUOUS
  0
LAYER
  2
30
 70
    64
 62
     7
  6
CONTINUOUS
  0
LAYER
  2
31
 70
    64
 62
     7
  6
CONTINUOUS
  0
LAYER
  2
32
 70
    64
 62
     7
  6
CONTINUOUS
  0
LAYER
  2
33
 70
    64
 62
     7
  6
CONTINUOUS
  0
LAYER
  2
34
 70
    64
 62
     7
  6
CONTINUOUS
  0
LAYER
  2
35
 70
    64
 62
     7
  6
CONTINUOUS
  0
LAYER
  2
36
 70
    64
 62
     7
  6
CONTINUOUS
  0
LAYER
  2
37
 70
    64
 62
     7
  6
CONTINUOUS
  0
LAYER
  2
38
 70
    64
 62
     7
  6
CONTINUOUS
  0
LAYER
  2
39
 70
    64
 62
     7
  6
CONTINUOUS
  0
LAYER
  2
40
 70
    64
 62
     7
  6
CONTINUOUS
  0
LAYER
  2
41
 70
    64
 62
     7
  6
CONTINUOUS
  0
LAYER
  2
42
 70
    64
 62
     7
  6
CONTINUOUS
  0
LAYER
  2
43
 70
    64
 62
     7
  6
CONTINUOUS
  0
LAYER
  2
44
 70
    64
 62
     7
  6
CONTINUOUS
  0
LAYER
  2
45
 70
    64
 62
     7
  6
CONTINUOUS
  0
LAYER
  2
46
 70
    64
 62
     7
  6
CONTINUOUS
  0
LAYER
  2
47
 70
    64
 62
     7
  6
CONTINUOUS
  0
LAYER
  2
48
 70
    64
 62
     7
  6
CONTINUOUS
  0
LAYER
  2
49
 70
    64
 62
     7
  6
CONTINUOUS
  0
LAYER
  2
50
 70
    64
 62
     7
  6
CONTINUOUS
  0
LAYER
  2
51
 70
    64
 62
     7
  6
CONTINUOUS
  0
LAYER
  2
52
 70
    64
 62
     7
  6
CONTINUOUS
  0
LAYER
  2
53
 70
    64
 62
     7
  6
CONTINUOUS
  0
LAYER
  2
54
 70
    64
 62
     7
  6
CONTINUOUS
  0
LAYER
  2
55
 70
    64
 62
     7
  6
CONTINUOUS
  0
LAYER
  2
56
 70
    64
 62
     7
  6
CONTINUOUS
  0
LAYER
  2
57
 70
    64
 62
     7
  6
CONTINUOUS
  0
LAYER
  2
58
 70
    64
 62
     7
  6
CONTINUOUS
  0
LAYER
  2
59
 70
    64
 62
     7
  6
CONTINUOUS
  0
LAYER
  2
60
 70
    64
 62
     7
  6
CONTINUOUS
  0
LAYER
  2
61
 70
    64
 62
     7
  6
CONTINUOUS
  0
LAYER
  2
62
 70
    64
 62
     7
  6
CONTINUOUS
  0
LAYER
  2
63
 70
    64
 62
     7
  6
CONTINUOUS
  0
LAYER
  2
64
 70
    64
 62
     7
  6
CONTINUOUS
  0
LAYER
  2
65
 70
    64
 62
     7
  6
CONTINUOUS
  0
LAYER
  2
66
 70
    64
 62
     7
  6
CONTINUOUS
  0
LAYER
  2
67
 70
    64
 62
     7
  6
CONTINUOUS
  0
LAYER
  2
68
 70
    64
 62
     7
  6
CONTINUOUS
  0
LAYER
  2
69
 70
    64
 62
     7
  6
CONTINUOUS
  0
LAYER
  2
70
 70
    64
 62
     7
  6
CONTINUOUS
  0
LAYER
  2
71
 70
    64
 62
     7
  6
CONTINUOUS
  0
LAYER
  2
72
 70
    64
 62
     7
  6
CONTINUOUS
  0
LAYER
  2
73
 70
    64
 62
     7
  6
CONTINUOUS
  0
LAYER
  2
74
 70
    64
 62
     7
  6
CONTINUOUS
  0
LAYER
  2
75
 70
    64
 62
     7
  6
CONTINUOUS
  0
LAYER
  2
76
 70
    64
 62
     7
  6
CONTINUOUS
  0
LAYER
  2
77
 70
    64
 62
     7
  6
CONTINUOUS
  0
LAYER
  2
78
 70
    64
 62
     7
  6
CONTINUOUS
  0
LAYER
  2
79
 70
    64
 62
     7
  6
CONTINUOUS
  0
LAYER
  2
80
 70
    64
 62
     7
  6
CONTINUOUS
  0
LAYER
  2
81
 70
    64
 62
     7
  6
CONTINUOUS
  0
LAYER
  2
82
 70
    64
 62
     7
  6
CONTINUOUS
  0
LAYER
  2
83
 70
    64
 62
     7
  6
CONTINUOUS
  0
LAYER
  2
84
 70
    64
 62
     7
  6
CONTINUOUS
  0
LAYER
  2
85
 70
    64
 62
     7
  6
CONTINUOUS
  0
LAYER
  2
86
 70
    64
 62
     7
  6
CONTINUOUS
  0
LAYER
  2
87
 70
    64
 62
     7
  6
CONTINUOUS
  0
LAYER
  2
88
 70
    64
 62
     7
  6
CONTINUOUS
  0
LAYER
  2
89
 70
    64
 62
     7
  6
CONTINUOUS
  0
LAYER
  2
90
 70
    64
 62
     7
  6
CONTINUOUS
  0
LAYER
  2
91
 70
    64
 62
     7
  6
CONTINUOUS
  0
LAYER
  2
92
 70
    64
 62
     7
  6
CONTINUOUS
  0
LAYER
  2
93
 70
    64
 62
     7
  6
CONTINUOUS
  0
LAYER
  2
94
 70
    64
 62
     7
  6
CONTINUOUS
  0
LAYER
  2
95
 70
    64
 62
     7
  6
CONTINUOUS
  0
LAYER
  2
96
 70
    64
 62
     7
  6
CONTINUOUS
  0
LAYER
  2
97
 70
    64
 62
     7
  6
CONTINUOUS
  0
LAYER
  2
98
 70
    64
 62
     7
  6
CONTINUOUS
  0
LAYER
  2
99
 70
    64
 62
     7
  6
CONTINUOUS
  0
LAYER
  2
100
 70
    64
 62
     7
  6
CONTINUOUS
  0
LAYER
  2
101
 70
    64
 62
     7
  6
CONTINUOUS
  0
LAYER
  2
102
 70
    64
 62
     7
  6
CONTINUOUS
  0
LAYER
  2
103
 70
    64
 62
     7
  6
CONTINUOUS
  0
LAYER
  2
104
 70
    64
 62
     7
  6
CONTINUOUS
  0
LAYER
  2
105
 70
    64
 62
     7
  6
CONTINUOUS
  0
LAYER
  2
106
 70
    64
 62
     7
  6
CONTINUOUS
  0
LAYER
  2
107
 70
    64
 62
     7
  6
CONTINUOUS
  0
LAYER
  2
108
 70
    64
 62
     7
  6
CONTINUOUS
  0
LAYER
  2
109
 70
    64
 62
     7
  6
CONTINUOUS
  0
LAYER
  2
110
 70
    64
 62
     7
  6
CONTINUOUS
  0
LAYER
  2
111
 70
    64
 62
     7
  6
CONTINUOUS
  0
LAYER
  2
112
 70
    64
 62
     7
  6
CONTINUOUS
  0
LAYER
  2
113
 70
    64
 62
     7
  6
CONTINUOUS
  0
LAYER
  2
114
 70
    64
 62
     7
  6
CONTINUOUS
  0
LAYER
  2
115
 70
    64
 62
     7
  6
CONTINUOUS
  0
LAYER
  2
116
 70
    64
 62
     7
  6
CONTINUOUS
  0
LAYER
  2
117
 70
    64
 62
     7
  6
CONTINUOUS
  0
LAYER
  2
118
 70
    64
 62
     7
  6
CONTINUOUS
  0
LAYER
  2
119
 70
    64
 62
     7
  6
CONTINUOUS
  0
LAYER
  2
120
 70
    64
 62
     7
  6
CONTINUOUS
  0
LAYER
  2
121
 70
    64
 62
     7
  6
CONTINUOUS
  0
LAYER
  2
122
 70
    64
 62
     7
  6
CONTINUOUS
  0
LAYER
  2
123
 70
    64
 62
     7
  6
CONTINUOUS
  0
LAYER
  2
124
 70
    64
 62
     7
  6
CONTINUOUS
  0
LAYER
  2
125
 70
    64
 62
     7
  6
CONTINUOUS
  0
LAYER
  2
126
 70
    64
 62
     7
  6
CONTINUOUS
  0
LAYER
  2
127
 70
    64
 62
     7
  6
CONTINUOUS
  0
LAYER
  2
128
 70
    64
 62
     7
  6
CONTINUOUS
  0
LAYER
  2
129
 70
    64
 62
     7
  6
CONTINUOUS
  0
LAYER
  2
130
 70
    64
 62
     7
  6
CONTINUOUS
  0
LAYER
  2
131
 70
    64
 62
     7
  6
CONTINUOUS
  0
LAYER
  2
132
 70
    64
 62
     7
  6
CONTINUOUS
  0
LAYER
  2
133
 70
    64
 62
     7
  6
CONTINUOUS
  0
LAYER
  2
134
 70
    64
 62
     7
  6
CONTINUOUS
  0
LAYER
  2
135
 70
    64
 62
     7
  6
CONTINUOUS
  0
LAYER
  2
136
 70
    64
 62
     7
  6
CONTINUOUS
  0
LAYER
  2
137
 70
    64
 62
     7
  6
CONTINUOUS
  0
LAYER
  2
138
 70
    64
 62
     7
  6
CONTINUOUS
  0
LAYER
  2
139
 70
    64
 62
     7
  6
CONTINUOUS
  0
LAYER
  2
140
 70
    64
 62
     7
  6
CONTINUOUS
  0
LAYER
  2
141
 70
    64
 62
     7
  6
CONTINUOUS
  0
LAYER
  2
142
 70
    64
 62
     7
  6
CONTINUOUS
  0
LAYER
  2
143
 70
    64
 62
     7
  6
CONTINUOUS
  0
LAYER
  2
144
 70
    64
 62
     7
  6
CONTINUOUS
  0
LAYER
  2
145
 70
    64
 62
     7
  6
CONTINUOUS
  0
LAYER
  2
146
 70
    64
 62
     7
  6
CONTINUOUS
  0
LAYER
  2
147
 70
    64
 62
     7
  6
CONTINUOUS
  0
LAYER
  2
148
 70
    64
 62
     7
  6
CONTINUOUS
  0
LAYER
  2
149
 70
    64
 62
     7
  6
CONTINUOUS
  0
LAYER
  2
150
 70
    64
 62
     7
  6
CONTINUOUS
  0
LAYER
  2
151
 70
    64
 62
     7
  6
CONTINUOUS
  0
LAYER
  2
152
 70
    64
 62
     7
  6
CONTINUOUS
  0
LAYER
  2
153
 70
    64
 62
     7
  6
CONTINUOUS
  0
LAYER
  2
154
 70
    64
 62
     7
  6
CONTINUOUS
  0
LAYER
  2
155
 70
    64
 62
     7
  6
CONTINUOUS
  0
LAYER
  2
156
 70
    64
 62
     7
  6
CONTINUOUS
  0
LAYER
  2
157
 70
    64
 62
     7
  6
CONTINUOUS
  0
LAYER
  2
158
 70
    64
 62
     7
  6
CONTINUOUS
  0
LAYER
  2
159
 70
    64
 62
     7
  6
CONTINUOUS
  0
LAYER
  2
160
 70
    64
 62
     7
  6
CONTINUOUS
  0
LAYER
  2
161
 70
    64
 62
     7
  6
CONTINUOUS
  0
LAYER
  2
162
 70
    64
 62
     7
  6
CONTINUOUS
  0
LAYER
  2
163
 70
    64
 62
     7
  6
CONTINUOUS
  0
LAYER
  2
164
 70
    64
 62
     7
  6
CONTINUOUS
  0
LAYER
  2
165
 70
    64
 62
     7
  6
CONTINUOUS
  0
LAYER
  2
166
 70
    64
 62
     7
  6
CONTINUOUS
  0
LAYER
  2
167
 70
    64
 62
     7
  6
CONTINUOUS
  0
LAYER
  2
168
 70
    64
 62
     7
  6
CONTINUOUS
  0
LAYER
  2
169
 70
    64
 62
     7
  6
CONTINUOUS
  0
LAYER
  2
170
 70
    64
 62
     7
  6
CONTINUOUS
  0
LAYER
  2
171
 70
    64
 62
     7
  6
CONTINUOUS
  0
LAYER
  2
172
 70
    64
 62
     7
  6
CONTINUOUS
  0
LAYER
  2
173
 70
    64
 62
     7
  6
CONTINUOUS
  0
LAYER
  2
174
 70
    64
 62
     7
  6
CONTINUOUS
  0
LAYER
  2
175
 70
    64
 62
     7
  6
CONTINUOUS
  0
LAYER
  2
176
 70
    64
 62
     7
  6
CONTINUOUS
  0
LAYER
  2
177
 70
    64
 62
     7
  6
CONTINUOUS
  0
LAYER
  2
178
 70
    64
 62
     7
  6
CONTINUOUS
  0
LAYER
  2
179
 70
    64
 62
     7
  6
CONTINUOUS
  0
LAYER
  2
180
 70
    64
 62
     7
  6
CONTINUOUS
  0
LAYER
  2
181
 70
    64
 62
     7
  6
CONTINUOUS
  0
LAYER
  2
182
 70
    64
 62
     7
  6
CONTINUOUS
  0
LAYER
  2
183
 70
    64
 62
     7
  6
CONTINUOUS
  0
LAYER
  2
184
 70
    64
 62
     7
  6
CONTINUOUS
  0
LAYER
  2
185
 70
    64
 62
     7
  6
CONTINUOUS
  0
LAYER
  2
186
 70
    64
 62
     7
  6
CONTINUOUS
  0
LAYER
  2
187
 70
    64
 62
     7
  6
CONTINUOUS
  0
LAYER
  2
188
 70
    64
 62
     7
  6
CONTINUOUS
  0
LAYER
  2
189
 70
    64
 62
     7
  6
CONTINUOUS
  0
LAYER
  2
190
 70
    64
 62
     7
  6
CONTINUOUS
  0
LAYER
  2
191
 70
    64
 62
     7
  6
CONTINUOUS
  0
LAYER
  2
192
 70
    64
 62
     7
  6
CONTINUOUS
  0
LAYER
  2
193
 70
    64
 62
     7
  6
CONTINUOUS
  0
LAYER
  2
194
 70
    64
 62
     7
  6
CONTINUOUS
  0
LAYER
  2
195
 70
    64
 62
     7
  6
CONTINUOUS
  0
LAYER
  2
196
 70
    64
 62
     7
  6
CONTINUOUS
  0
LAYER
  2
197
 70
    64
 62
     7
  6
CONTINUOUS
  0
LAYER
  2
198
 70
    64
 62
     7
  6
CONTINUOUS
  0
LAYER
  2
199
 70
    64
 62
     7
  6
CONTINUOUS
  0
LAYER
  2
200
 70
    64
 62
     7
  6
CONTINUOUS
  0
LAYER
  2
201
 70
    64
 62
     7
  6
CONTINUOUS
  0
LAYER
  2
202
 70
    64
 62
     7
  6
CONTINUOUS
  0
LAYER
  2
203
 70
    64
 62
     7
  6
CONTINUOUS
  0
LAYER
  2
204
 70
    64
 62
     7
  6
CONTINUOUS
  0
LAYER
  2
205
 70
    64
 62
     7
  6
CONTINUOUS
  0
LAYER
  2
206
 70
    64
 62
     7
  6
CONTINUOUS
  0
LAYER
  2
207
 70
    64
 62
     7
  6
CONTINUOUS
  0
LAYER
  2
208
 70
    64
 62
     7
  6
CONTINUOUS
  0
LAYER
  2
209
 70
    64
 62
     7
  6
CONTINUOUS
  0
LAYER
  2
210
 70
    64
 62
     7
  6
CONTINUOUS
  0
LAYER
  2
211
 70
    64
 62
     7
  6
CONTINUOUS
  0
LAYER
  2
212
 70
    64
 62
     7
  6
CONTINUOUS
  0
LAYER
  2
213
 70
    64
 62
     7
  6
CONTINUOUS
  0
LAYER
  2
214
 70
    64
 62
     7
  6
CONTINUOUS
  0
LAYER
  2
215
 70
    64
 62
     7
  6
CONTINUOUS
  0
LAYER
  2
216
 70
    64
 62
     7
  6
CONTINUOUS
  0
LAYER
  2
217
 70
    64
 62
     7
  6
CONTINUOUS
  0
LAYER
  2
218
 70
    64
 62
     7
  6
CONTINUOUS
  0
LAYER
  2
219
 70
    64
 62
     7
  6
CONTINUOUS
  0
LAYER
  2
220
 70
    64
 62
     7
  6
CONTINUOUS
  0
LAYER
  2
221
 70
    64
 62
     7
  6
CONTINUOUS
  0
LAYER
  2
222
 70
    64
 62
     7
  6
CONTINUOUS
  0
LAYER
  2
223
 70
    64
 62
     7
  6
CONTINUOUS
  0
LAYER
  2
224
 70
    64
 62
     7
  6
CONTINUOUS
  0
LAYER
  2
225
 70
    64
 62
     7
  6
CONTINUOUS
  0
LAYER
  2
226
 70
    64
 62
     7
  6
CONTINUOUS
  0
LAYER
  2
227
 70
    64
 62
     7
  6
CONTINUOUS
  0
LAYER
  2
228
 70
    64
 62
     7
  6
CONTINUOUS
  0
LAYER
  2
229
 70
    64
 62
     7
  6
CONTINUOUS
  0
LAYER
  2
230
 70
    64
 62
     7
  6
CONTINUOUS
  0
LAYER
  2
231
 70
    64
 62
     7
  6
CONTINUOUS
  0
LAYER
  2
232
 70
    64
 62
     7
  6
CONTINUOUS
  0
LAYER
  2
233
 70
    64
 62
     7
  6
CONTINUOUS
  0
LAYER
  2
234
 70
    64
 62
     7
  6
CONTINUOUS
  0
LAYER
  2
235
 70
    64
 62
     7
  6
CONTINUOUS
  0
LAYER
  2
236
 70
    64
 62
     7
  6
CONTINUOUS
  0
LAYER
  2
237
 70
    64
 62
     7
  6
CONTINUOUS
  0
LAYER
  2
238
 70
    64
 62
     7
  6
CONTINUOUS
  0
LAYER
  2
239
 70
    64
 62
     7
  6
CONTINUOUS
  0
LAYER
  2
240
 70
    64
 62
     7
  6
CONTINUOUS
  0
LAYER
  2
241
 70
    64
 62
     7
  6
CONTINUOUS
  0
LAYER
  2
242
 70
    64
 62
     7
  6
CONTINUOUS
  0
LAYER
  2
243
 70
    64
 62
     7
  6
CONTINUOUS
  0
LAYER
  2
244
 70
    64
 62
     7
  6
CONTINUOUS
  0
LAYER
  2
245
 70
    64
 62
     7
  6
CONTINUOUS
  0
LAYER
  2
246
 70
    64
 62
     7
  6
CONTINUOUS
  0
LAYER
  2
247
 70
    64
 62
     7
  6
CONTINUOUS
  0
LAYER
  2
248
 70
    64
 62
     7
  6
CONTINUOUS
  0
LAYER
  2
249
 70
    64
 62
     7
  6
CONTINUOUS
  0
LAYER
  2
250
 70
    64
 62
     7
  6
CONTINUOUS
  0
LAYER
  2
251
 70
    64
 62
     7
  6
CONTINUOUS
  0
LAYER
  2
252
 70
    64
 62
     7
  6
CONTINUOUS
  0
LAYER
  2
253
 70
    64
 62
     7
  6
CONTINUOUS
  0
LAYER
  2
254
 70
    64
 62
     7
  6
CONTINUOUS
  0
LAYER
  2
255
 70
    64
 62
     7
  6
CONTINUOUS
  0
ENDTAB
  0
TABLE
  2
STYLE
 70
     2
  0
STYLE
  2
STANDARD
 70
    64
 40
0.0
 41
1.0
 50
0.0
 71
     0
 42
3.000000
  3
TXT
  4
BIGFONT
  0
ENDTAB
  0
ENDSEC
  0
SECTION
  2
ENTITIES
  0
LINE
  8
256
  6
CONTINUOUS
 62
     7
 10
-966.5
 20
 624.99998228126742
 11
-466.50000000000006
 21
 624.99998228126742
  0
LINE
  8
256
  6
CONTINUOUS
 62
     7
 10
-466.50000000000006
 20
 624.99998228126753
 11
-466.50000000000006
 21
 684.99998605684038
  0
TEXT
  8
256
  6
CONTINUOUS
 62
     7
 10
-941.5
 20
 639.99998024088075
 11
-701.5
 21
 639.99998024088075
 40
 30
 41
 1
  1
Ｉ－４１８０１Ｇ
 50
 0
 72
  5
  0
LINE
  8
256
  6
CONTINUOUS
 62
     7
 10
 524.99992370605469
 20
-607.5
 11
 1000
 21
-607.5
  0
LINE
  8
256
  6
CONTINUOUS
 62
     7
 10
 854.99992370605469
 20
-547.5
 11
 854.99992370605469
 21
-607.5
  0
TEXT
  8
256
  6
CONTINUOUS
 62
     7
 10
 562.5
 20
-671.25
 11
 742.5
 21
-671.25
 40
 30
 41
 1
  1
ＭＢ－２２５
 50
 0
 72
  5
  0
TEXT
  8
256
  6
CONTINUOUS
 62
     7
 10
 649.99992370605469
 20
-598.75
 11
 729.99992370605469
 21
-598.75
 40
 25
 41
 0.8
  1
主幹銅帯
 50
 0
 72
  5
  0
TEXT
  8
256
  6
CONTINUOUS
 62
     7
 10
 531.49993896484375
 20
-562.24981689453102
 11
 556.49993896484375
 21
-562.24981689453102
 40
 12.5
 41
 0.8
  1
品名
 50
 0
 72
  5
  0
TEXT
  8
256
  6
CONTINUOUS
 62
     7
 10
 531.49993896484375
 20
-622.25015258789062
 11
 556.49993896484375
 21
-622.25015258789062
 40
 12.5
 41
 0.8
  1
品番
 50
 0
 72
  5
  0
LINE
  8
256
  6
CONTINUOUS
 62
     7
 10
 524.99992370605469
 20
-697.5
 11
 524.99992370605469
 21
-547.5
  0
LINE
  8
256
  6
CONTINUOUS
 62
     7
 10
 524.99992370605469
 20
-547.5
 11
 1000
 21
-547.5
  0
LINE
  8
256
  6
CONTINUOUS
 62
     7
 10
-966.5
 20
 684.99998605684038
 11
-966.5
 21
-697.49999999999977
  0
LINE
  8
256
  6
CONTINUOUS
 62
     7
 10
-966.5
 20
 684.99998605684038
 11
 1000
 21
 684.99998605684038
  0
LINE
  8
256
  6
CONTINUOUS
 62
     7
 10
 1000
 20
-697.5
 11
-966.5
 21
-697.49999999999977
  0
LINE
  8
256
  6
CONTINUOUS
 62
     7
 10
 1000
 20
 684.99998605684038
 11
 1000
 21
-697.5
  0
LINE
  8
0
  6
CONTINUOUS
 62
     3
 10
-625
 20
 110
 11
-625
 21
 90
  0
LINE
  8
0
  6
CONTINUOUS
 62
     3
 10
-625
 20
 90
 11
 625
 21
 90
  0
LINE
  8
0
  6
CONTINUOUS
 62
     3
 10
 625
 20
 90
 11
 625
 21
 110
  0
LINE
  8
0
  6
CONTINUOUS
 62
     3
 10
 625
 20
 110
 11
-625
 21
 110
  0
LINE
  8
0
  6
CONTINUOUS
 62
     3
 10
-625
 20
-99
 11
-625
 21
-105
  0
LINE
  8
0
  6
CONTINUOUS
 62
     3
 10
-625
 20
-105
 11
 625
 21
-105
  0
LINE
  8
0
  6
CONTINUOUS
 62
     3
 10
 625
 20
-105
 11
 625
 21
-99
  0
LINE
  8
0
  6
CONTINUOUS
 62
     3
 10
 625
 20
-99
 11
-625
 21
-99
  0
LINE
  8
0
  6
CONTINUOUS
 62
     7
 10
-612.5
 20
 113
 11
-612.5
 21
 161.00000000000014
  0
LINE
  8
0
  6
CONTINUOUS
 62
     7
 10
-625
 20
 115
 11
-625
 21
 161.00000000000014
  0
LINE
  8
0
  6
CONTINUOUS
 62
     7
 10
-625
 20
 156.00000000000014
 11
-612.5
 21
 156.00000000000014
  0
TEXT
  8
0
  6
CONTINUOUS
 62
     7
 10
-667.5
 20
 160.00000000000014
 11
-627.5
 21
 160.00000000000014
 40
 12.5
 41
 0.8
  1
12.5
 50
 0
 72
  5
  0
LINE
  8
0
  6
CONTINUOUS
 62
     7
 10
-667.5
 20
 156.00000000000014
 11
-625
 21
 156.00000000000014
  0
LINE
  8
0
  6
CONTINUOUS
 62
     7
 10
-625
 20
 156.00000000000014
 11
-639.48888739433607
 21
 159.88228567653795
  0
LINE
  8
0
  6
CONTINUOUS
 62
     7
 10
-625
 20
 156.00000000000014
 11
-639.48888739433607
 21
 152.11771432346234
  0
LINE
  8
0
  6
CONTINUOUS
 62
     7
 10
-587.5
 20
 113
 11
-587.5
 21
 161.00000000000014
  0
LINE
  8
0
  6
CONTINUOUS
 62
     7
 10
-612.5
 20
 156.00000000000014
 11
-587.5
 21
 156.00000000000014
  0
LINE
  8
0
  6
CONTINUOUS
 62
     7
 10
-612.5
 20
 156.00000000000014
 11
-598.01111260566393
 21
 152.11771432346234
  0
LINE
  8
0
  6
CONTINUOUS
 62
     7
 10
-612.5
 20
 156.00000000000014
 11
-598.01111260566393
 21
 159.88228567653795
  0
LINE
  8
0
  6
CONTINUOUS
 62
     7
 10
-587.5
 20
 156.00000000000014
 11
-601.98888739433607
 21
 159.88228567653795
  0
LINE
  8
0
  6
CONTINUOUS
 62
     7
 10
-587.5
 20
 156.00000000000014
 11
-601.98888739433607
 21
 152.11771432346234
  0
TEXT
  8
0
  6
CONTINUOUS
 62
     7
 10
-610
 20
 160.00000000000014
 11
-590
 21
 160.00000000000014
 40
 12.5
 41
 0.8
  1
25
 50
 0
 72
  5
  0
LINE
  8
0
  6
CONTINUOUS
 62
     7
 10
-562.5
 20
 113
 11
-562.5
 21
 161.00000000000014
  0
LINE
  8
0
  6
CONTINUOUS
 62
     7
 10
-587.5
 20
 156.00000000000014
 11
-562.5
 21
 156.00000000000014
  0
LINE
  8
0
  6
CONTINUOUS
 62
     7
 10
-587.5
 20
 156.00000000000014
 11
-573.01111260566393
 21
 152.11771432346234
  0
LINE
  8
0
  6
CONTINUOUS
 62
     7
 10
-587.5
 20
 156.00000000000014
 11
-573.01111260566393
 21
 159.88228567653795
  0
LINE
  8
0
  6
CONTINUOUS
 62
     7
 10
-562.5
 20
 156.00000000000014
 11
-576.98888739433607
 21
 159.88228567653795
  0
LINE
  8
0
  6
CONTINUOUS
 62
     7
 10
-562.5
 20
 156.00000000000014
 11
-576.98888739433607
 21
 152.11771432346234
  0
TEXT
  8
0
  6
CONTINUOUS
 62
     7
 10
-585
 20
 160.00000000000014
 11
-565
 21
 160.00000000000014
 40
 12.5
 41
 0.8
  1
25
 50
 0
 72
  5
  0
LINE
  8
0
  6
CONTINUOUS
 62
     7
 10
-537.5
 20
 113
 11
-537.5
 21
 161.00000000000014
  0
LINE
  8
0
  6
CONTINUOUS
 62
     7
 10
-562.5
 20
 156.00000000000014
 11
-537.5
 21
 156.00000000000014
  0
LINE
  8
0
  6
CONTINUOUS
 62
     7
 10
-562.5
 20
 156.00000000000014
 11
-548.01111260566393
 21
 152.11771432346234
  0
LINE
  8
0
  6
CONTINUOUS
 62
     7
 10
-562.5
 20
 156.00000000000014
 11
-548.01111260566393
 21
 159.88228567653795
  0
LINE
  8
0
  6
CONTINUOUS
 62
     7
 10
-537.5
 20
 156.00000000000014
 11
-551.98888739433607
 21
 159.88228567653795
  0
LINE
  8
0
  6
CONTINUOUS
 62
     7
 10
-537.5
 20
 156.00000000000014
 11
-551.98888739433607
 21
 152.11771432346234
  0
TEXT
  8
0
  6
CONTINUOUS
 62
     7
 10
-560
 20
 160.00000000000014
 11
-540
 21
 160.00000000000014
 40
 12.5
 41
 0.8
  1
25
 50
 0
 72
  5
  0
LINE
  8
0
  6
CONTINUOUS
 62
     7
 10
-512.5
 20
 113
 11
-512.5
 21
 161.00000000000014
  0
LINE
  8
0
  6
CONTINUOUS
 62
     7
 10
-537.5
 20
 156.00000000000014
 11
-512.5
 21
 156.00000000000014
  0
LINE
  8
0
  6
CONTINUOUS
 62
     7
 10
-537.5
 20
 156.00000000000014
 11
-523.01111260566393
 21
 152.11771432346234
  0
LINE
  8
0
  6
CONTINUOUS
 62
     7
 10
-537.5
 20
 156.00000000000014
 11
-523.01111260566393
 21
 159.88228567653795
  0
LINE
  8
0
  6
CONTINUOUS
 62
     7
 10
-512.5
 20
 156.00000000000014
 11
-526.98888739433607
 21
 159.88228567653795
  0
LINE
  8
0
  6
CONTINUOUS
 62
     7
 10
-512.5
 20
 156.00000000000014
 11
-526.98888739433607
 21
 152.11771432346234
  0
TEXT
  8
0
  6
CONTINUOUS
 62
     7
 10
-535
 20
 160.00000000000014
 11
-515
 21
 160.00000000000014
 40
 12.5
 41
 0.8
  1
25
 50
 0
 72
  5
  0
LINE
  8
0
  6
CONTINUOUS
 62
     7
 10
-487.5
 20
 113
 11
-487.5
 21
 161.00000000000014
  0
LINE
  8
0
  6
CONTINUOUS
 62
     7
 10
-512.5
 20
 156.00000000000014
 11
-487.5
 21
 156.00000000000014
  0
LINE
  8
0
  6
CONTINUOUS
 62
     7
 10
-512.5
 20
 156.00000000000014
 11
-498.01111260566398
 21
 152.11771432346234
  0
LINE
  8
0
  6
CONTINUOUS
 62
     7
 10
-512.5
 20
 156.00000000000014
 11
-498.01111260566398
 21
 159.88228567653795
  0
LINE
  8
0
  6
CONTINUOUS
 62
     7
 10
-487.5
 20
 156.00000000000014
 11
-501.98888739433602
 21
 159.88228567653795
  0
LINE
  8
0
  6
CONTINUOUS
 62
     7
 10
-487.5
 20
 156.00000000000014
 11
-501.98888739433602
 21
 152.11771432346234
  0
TEXT
  8
0
  6
CONTINUOUS
 62
     7
 10
-510
 20
 160.00000000000014
 11
-490
 21
 160.00000000000014
 40
 12.5
 41
 0.8
  1
25
 50
 0
 72
  5
  0
LINE
  8
0
  6
CONTINUOUS
 62
     7
 10
-462.5
 20
 113
 11
-462.5
 21
 161.00000000000014
  0
LINE
  8
0
  6
CONTINUOUS
 62
     7
 10
-487.5
 20
 156.00000000000014
 11
-462.5
 21
 156.00000000000014
  0
LINE
  8
0
  6
CONTINUOUS
 62
     7
 10
-487.5
 20
 156.00000000000014
 11
-473.01111260566398
 21
 152.11771432346234
  0
LINE
  8
0
  6
CONTINUOUS
 62
     7
 10
-487.5
 20
 156.00000000000014
 11
-473.01111260566398
 21
 159.88228567653795
  0
LINE
  8
0
  6
CONTINUOUS
 62
     7
 10
-462.5
 20
 156.00000000000014
 11
-476.98888739433602
 21
 159.88228567653795
  0
LINE
  8
0
  6
CONTINUOUS
 62
     7
 10
-462.5
 20
 156.00000000000014
 11
-476.98888739433602
 21
 152.11771432346234
  0
TEXT
  8
0
  6
CONTINUOUS
 62
     7
 10
-485
 20
 160.00000000000014
 11
-465
 21
 160.00000000000014
 40
 12.5
 41
 0.8
  1
25
 50
 0
 72
  5
  0
LINE
  8
0
  6
CONTINUOUS
 62
     7
 10
-437.5
 20
 113
 11
-437.5
 21
 161.00000000000014
  0
LINE
  8
0
  6
CONTINUOUS
 62
     7
 10
-462.5
 20
 156.00000000000014
 11
-437.5
 21
 156.00000000000014
  0
LINE
  8
0
  6
CONTINUOUS
 62
     7
 10
-462.5
 20
 156.00000000000014
 11
-448.01111260566398
 21
 152.11771432346234
  0
LINE
  8
0
  6
CONTINUOUS
 62
     7
 10
-462.5
 20
 156.00000000000014
 11
-448.01111260566398
 21
 159.88228567653795
  0
LINE
  8
0
  6
CONTINUOUS
 62
     7
 10
-437.5
 20
 156.00000000000014
 11
-451.98888739433602
 21
 159.88228567653795
  0
LINE
  8
0
  6
CONTINUOUS
 62
     7
 10
-437.5
 20
 156.00000000000014
 11
-451.98888739433602
 21
 152.11771432346234
  0
TEXT
  8
0
  6
CONTINUOUS
 62
     7
 10
-460
 20
 160.00000000000014
 11
-440
 21
 160.00000000000014
 40
 12.5
 41
 0.8
  1
25
 50
 0
 72
  5
  0
LINE
  8
0
  6
CONTINUOUS
 62
     7
 10
-412.5
 20
 113
 11
-412.5
 21
 161.00000000000014
  0
LINE
  8
0
  6
CONTINUOUS
 62
     7
 10
-437.5
 20
 156.00000000000014
 11
-412.5
 21
 156.00000000000014
  0
LINE
  8
0
  6
CONTINUOUS
 62
     7
 10
-437.5
 20
 156.00000000000014
 11
-423.01111260566398
 21
 152.11771432346234
  0
LINE
  8
0
  6
CONTINUOUS
 62
     7
 10
-437.5
 20
 156.00000000000014
 11
-423.01111260566398
 21
 159.88228567653795
  0
LINE
  8
0
  6
CONTINUOUS
 62
     7
 10
-412.5
 20
 156.00000000000014
 11
-426.98888739433602
 21
 159.88228567653795
  0
LINE
  8
0
  6
CONTINUOUS
 62
     7
 10
-412.5
 20
 156.00000000000014
 11
-426.98888739433602
 21
 152.11771432346234
  0
TEXT
  8
0
  6
CONTINUOUS
 62
     7
 10
-435
 20
 160.00000000000014
 11
-415
 21
 160.00000000000014
 40
 12.5
 41
 0.8
  1
25
 50
 0
 72
  5
  0
LINE
  8
0
  6
CONTINUOUS
 62
     7
 10
-387.5
 20
 113
 11
-387.5
 21
 161.00000000000014
  0
LINE
  8
0
  6
CONTINUOUS
 62
     7
 10
-412.5
 20
 156.00000000000014
 11
-387.5
 21
 156.00000000000014
  0
LINE
  8
0
  6
CONTINUOUS
 62
     7
 10
-412.5
 20
 156.00000000000014
 11
-398.01111260566398
 21
 152.11771432346234
  0
LINE
  8
0
  6
CONTINUOUS
 62
     7
 10
-412.5
 20
 156.00000000000014
 11
-398.01111260566398
 21
 159.88228567653795
  0
LINE
  8
0
  6
CONTINUOUS
 62
     7
 10
-387.5
 20
 156.00000000000014
 11
-401.98888739433602
 21
 159.88228567653795
  0
LINE
  8
0
  6
CONTINUOUS
 62
     7
 10
-387.5
 20
 156.00000000000014
 11
-401.98888739433602
 21
 152.11771432346234
  0
TEXT
  8
0
  6
CONTINUOUS
 62
     7
 10
-410
 20
 160.00000000000014
 11
-390
 21
 160.00000000000014
 40
 12.5
 41
 0.8
  1
25
 50
 0
 72
  5
  0
LINE
  8
0
  6
CONTINUOUS
 62
     7
 10
-362.5
 20
 113
 11
-362.5
 21
 161.00000000000014
  0
LINE
  8
0
  6
CONTINUOUS
 62
     7
 10
-387.5
 20
 156.00000000000014
 11
-362.5
 21
 156.00000000000014
  0
LINE
  8
0
  6
CONTINUOUS
 62
     7
 10
-387.5
 20
 156.00000000000014
 11
-373.01111260566398
 21
 152.11771432346234
  0
LINE
  8
0
  6
CONTINUOUS
 62
     7
 10
-387.5
 20
 156.00000000000014
 11
-373.01111260566398
 21
 159.88228567653795
  0
LINE
  8
0
  6
CONTINUOUS
 62
     7
 10
-362.5
 20
 156.00000000000014
 11
-376.98888739433602
 21
 159.88228567653795
  0
LINE
  8
0
  6
CONTINUOUS
 62
     7
 10
-362.5
 20
 156.00000000000014
 11
-376.98888739433602
 21
 152.11771432346234
  0
TEXT
  8
0
  6
CONTINUOUS
 62
     7
 10
-385
 20
 160.00000000000014
 11
-365
 21
 160.00000000000014
 40
 12.5
 41
 0.8
  1
25
 50
 0
 72
  5
  0
LINE
  8
0
  6
CONTINUOUS
 62
     7
 10
-337.5
 20
 113
 11
-337.5
 21
 161.00000000000014
  0
LINE
  8
0
  6
CONTINUOUS
 62
     7
 10
-362.5
 20
 156.00000000000014
 11
-337.5
 21
 156.00000000000014
  0
LINE
  8
0
  6
CONTINUOUS
 62
     7
 10
-362.5
 20
 156.00000000000014
 11
-348.01111260566398
 21
 152.11771432346234
  0
LINE
  8
0
  6
CONTINUOUS
 62
     7
 10
-362.5
 20
 156.00000000000014
 11
-348.01111260566398
 21
 159.88228567653795
  0
LINE
  8
0
  6
CONTINUOUS
 62
     7
 10
-337.5
 20
 156.00000000000014
 11
-351.98888739433602
 21
 159.88228567653795
  0
LINE
  8
0
  6
CONTINUOUS
 62
     7
 10
-337.5
 20
 156.00000000000014
 11
-351.98888739433602
 21
 152.11771432346234
  0
TEXT
  8
0
  6
CONTINUOUS
 62
     7
 10
-360
 20
 160.00000000000014
 11
-340
 21
 160.00000000000014
 40
 12.5
 41
 0.8
  1
25
 50
 0
 72
  5
  0
LINE
  8
0
  6
CONTINUOUS
 62
     7
 10
-312.5
 20
 113
 11
-312.5
 21
 161.00000000000014
  0
LINE
  8
0
  6
CONTINUOUS
 62
     7
 10
-337.5
 20
 156.00000000000014
 11
-312.5
 21
 156.00000000000014
  0
LINE
  8
0
  6
CONTINUOUS
 62
     7
 10
-337.5
 20
 156.00000000000014
 11
-323.01111260566398
 21
 152.11771432346234
  0
LINE
  8
0
  6
CONTINUOUS
 62
     7
 10
-337.5
 20
 156.00000000000014
 11
-323.01111260566398
 21
 159.88228567653795
  0
LINE
  8
0
  6
CONTINUOUS
 62
     7
 10
-312.5
 20
 156.00000000000014
 11
-326.98888739433602
 21
 159.88228567653795
  0
LINE
  8
0
  6
CONTINUOUS
 62
     7
 10
-312.5
 20
 156.00000000000014
 11
-326.98888739433602
 21
 152.11771432346234
  0
TEXT
  8
0
  6
CONTINUOUS
 62
     7
 10
-335
 20
 160.00000000000014
 11
-315
 21
 160.00000000000014
 40
 12.5
 41
 0.8
  1
25
 50
 0
 72
  5
  0
LINE
  8
0
  6
CONTINUOUS
 62
     7
 10
-287.5
 20
 113
 11
-287.5
 21
 161.00000000000014
  0
LINE
  8
0
  6
CONTINUOUS
 62
     7
 10
-312.5
 20
 156.00000000000014
 11
-287.5
 21
 156.00000000000014
  0
LINE
  8
0
  6
CONTINUOUS
 62
     7
 10
-312.5
 20
 156.00000000000014
 11
-298.01111260566398
 21
 152.11771432346234
  0
LINE
  8
0
  6
CONTINUOUS
 62
     7
 10
-312.5
 20
 156.00000000000014
 11
-298.01111260566398
 21
 159.88228567653795
  0
LINE
  8
0
  6
CONTINUOUS
 62
     7
 10
-287.5
 20
 156.00000000000014
 11
-301.98888739433602
 21
 159.88228567653795
  0
LINE
  8
0
  6
CONTINUOUS
 62
     7
 10
-287.5
 20
 156.00000000000014
 11
-301.98888739433602
 21
 152.11771432346234
  0
TEXT
  8
0
  6
CONTINUOUS
 62
     7
 10
-310
 20
 160.00000000000014
 11
-290
 21
 160.00000000000014
 40
 12.5
 41
 0.8
  1
25
 50
 0
 72
  5
  0
LINE
  8
0
  6
CONTINUOUS
 62
     7
 10
-262.5
 20
 113
 11
-262.5
 21
 161.00000000000014
  0
LINE
  8
0
  6
CONTINUOUS
 62
     7
 10
-287.5
 20
 156.00000000000014
 11
-262.5
 21
 156.00000000000014
  0
LINE
  8
0
  6
CONTINUOUS
 62
     7
 10
-287.5
 20
 156.00000000000014
 11
-273.01111260566398
 21
 152.11771432346234
  0
LINE
  8
0
  6
CONTINUOUS
 62
     7
 10
-287.5
 20
 156.00000000000014
 11
-273.01111260566398
 21
 159.88228567653795
  0
LINE
  8
0
  6
CONTINUOUS
 62
     7
 10
-262.5
 20
 156.00000000000014
 11
-276.98888739433602
 21
 159.88228567653795
  0
LINE
  8
0
  6
CONTINUOUS
 62
     7
 10
-262.5
 20
 156.00000000000014
 11
-276.98888739433602
 21
 152.11771432346234
  0
TEXT
  8
0
  6
CONTINUOUS
 62
     7
 10
-285
 20
 160.00000000000014
 11
-265
 21
 160.00000000000014
 40
 12.5
 41
 0.8
  1
25
 50
 0
 72
  5
  0
LINE
  8
0
  6
CONTINUOUS
 62
     7
 10
-237.5
 20
 113
 11
-237.5
 21
 161.00000000000014
  0
LINE
  8
0
  6
CONTINUOUS
 62
     7
 10
-262.5
 20
 156.00000000000014
 11
-237.5
 21
 156.00000000000014
  0
LINE
  8
0
  6
CONTINUOUS
 62
     7
 10
-262.5
 20
 156.00000000000014
 11
-248.01111260566398
 21
 152.11771432346234
  0
LINE
  8
0
  6
CONTINUOUS
 62
     7
 10
-262.5
 20
 156.00000000000014
 11
-248.01111260566398
 21
 159.88228567653795
  0
LINE
  8
0
  6
CONTINUOUS
 62
     7
 10
-237.5
 20
 156.00000000000014
 11
-251.98888739433602
 21
 159.88228567653795
  0
LINE
  8
0
  6
CONTINUOUS
 62
     7
 10
-237.5
 20
 156.00000000000014
 11
-251.98888739433602
 21
 152.11771432346234
  0
TEXT
  8
0
  6
CONTINUOUS
 62
     7
 10
-260
 20
 160.00000000000014
 11
-240
 21
 160.00000000000014
 40
 12.5
 41
 0.8
  1
25
 50
 0
 72
  5
  0
LINE
  8
0
  6
CONTINUOUS
 62
     7
 10
-212.5
 20
 113
 11
-212.5
 21
 161.00000000000014
  0
LINE
  8
0
  6
CONTINUOUS
 62
     7
 10
-237.5
 20
 156.00000000000014
 11
-212.5
 21
 156.00000000000014
  0
LINE
  8
0
  6
CONTINUOUS
 62
     7
 10
-237.5
 20
 156.00000000000014
 11
-223.01111260566398
 21
 152.11771432346234
  0
LINE
  8
0
  6
CONTINUOUS
 62
     7
 10
-237.5
 20
 156.00000000000014
 11
-223.01111260566398
 21
 159.88228567653795
  0
LINE
  8
0
  6
CONTINUOUS
 62
     7
 10
-212.5
 20
 156.00000000000014
 11
-226.98888739433602
 21
 159.88228567653795
  0
LINE
  8
0
  6
CONTINUOUS
 62
     7
 10
-212.5
 20
 156.00000000000014
 11
-226.98888739433602
 21
 152.11771432346234
  0
TEXT
  8
0
  6
CONTINUOUS
 62
     7
 10
-235
 20
 160.00000000000014
 11
-215
 21
 160.00000000000014
 40
 12.5
 41
 0.8
  1
25
 50
 0
 72
  5
  0
LINE
  8
0
  6
CONTINUOUS
 62
     7
 10
-187.5
 20
 113
 11
-187.5
 21
 161.00000000000014
  0
LINE
  8
0
  6
CONTINUOUS
 62
     7
 10
-212.5
 20
 156.00000000000014
 11
-187.5
 21
 156.00000000000014
  0
LINE
  8
0
  6
CONTINUOUS
 62
     7
 10
-212.5
 20
 156.00000000000014
 11
-198.01111260566398
 21
 152.11771432346234
  0
LINE
  8
0
  6
CONTINUOUS
 62
     7
 10
-212.5
 20
 156.00000000000014
 11
-198.01111260566398
 21
 159.88228567653795
  0
LINE
  8
0
  6
CONTINUOUS
 62
     7
 10
-187.5
 20
 156.00000000000014
 11
-201.98888739433602
 21
 159.88228567653795
  0
LINE
  8
0
  6
CONTINUOUS
 62
     7
 10
-187.5
 20
 156.00000000000014
 11
-201.98888739433602
 21
 152.11771432346234
  0
TEXT
  8
0
  6
CONTINUOUS
 62
     7
 10
-210
 20
 160.00000000000014
 11
-190
 21
 160.00000000000014
 40
 12.5
 41
 0.8
  1
25
 50
 0
 72
  5
  0
LINE
  8
0
  6
CONTINUOUS
 62
     7
 10
-162.5
 20
 113
 11
-162.5
 21
 161.00000000000014
  0
LINE
  8
0
  6
CONTINUOUS
 62
     7
 10
-187.5
 20
 156.00000000000014
 11
-162.5
 21
 156.00000000000014
  0
LINE
  8
0
  6
CONTINUOUS
 62
     7
 10
-187.5
 20
 156.00000000000014
 11
-173.01111260566398
 21
 152.11771432346234
  0
LINE
  8
0
  6
CONTINUOUS
 62
     7
 10
-187.5
 20
 156.00000000000014
 11
-173.01111260566398
 21
 159.88228567653795
  0
LINE
  8
0
  6
CONTINUOUS
 62
     7
 10
-162.5
 20
 156.00000000000014
 11
-176.98888739433602
 21
 159.88228567653795
  0
LINE
  8
0
  6
CONTINUOUS
 62
     7
 10
-162.5
 20
 156.00000000000014
 11
-176.98888739433602
 21
 152.11771432346234
  0
TEXT
  8
0
  6
CONTINUOUS
 62
     7
 10
-185
 20
 160.00000000000014
 11
-165
 21
 160.00000000000014
 40
 12.5
 41
 0.8
  1
25
 50
 0
 72
  5
  0
LINE
  8
0
  6
CONTINUOUS
 62
     7
 10
-137.5
 20
 113
 11
-137.5
 21
 161.00000000000014
  0
LINE
  8
0
  6
CONTINUOUS
 62
     7
 10
-162.5
 20
 156.00000000000014
 11
-137.5
 21
 156.00000000000014
  0
LINE
  8
0
  6
CONTINUOUS
 62
     7
 10
-162.5
 20
 156.00000000000014
 11
-148.01111260566398
 21
 152.11771432346234
  0
LINE
  8
0
  6
CONTINUOUS
 62
     7
 10
-162.5
 20
 156.00000000000014
 11
-148.01111260566398
 21
 159.88228567653795
  0
LINE
  8
0
  6
CONTINUOUS
 62
     7
 10
-137.5
 20
 156.00000000000014
 11
-151.98888739433602
 21
 159.88228567653795
  0
LINE
  8
0
  6
CONTINUOUS
 62
     7
 10
-137.5
 20
 156.00000000000014
 11
-151.98888739433602
 21
 152.11771432346234
  0
TEXT
  8
0
  6
CONTINUOUS
 62
     7
 10
-160
 20
 160.00000000000014
 11
-140
 21
 160.00000000000014
 40
 12.5
 41
 0.8
  1
25
 50
 0
 72
  5
  0
LINE
  8
0
  6
CONTINUOUS
 62
     7
 10
-112.5
 20
 113
 11
-112.5
 21
 161.00000000000014
  0
LINE
  8
0
  6
CONTINUOUS
 62
     7
 10
-137.5
 20
 156.00000000000014
 11
-112.5
 21
 156.00000000000014
  0
LINE
  8
0
  6
CONTINUOUS
 62
     7
 10
-137.5
 20
 156.00000000000014
 11
-123.01111260566398
 21
 152.11771432346234
  0
LINE
  8
0
  6
CONTINUOUS
 62
     7
 10
-137.5
 20
 156.00000000000014
 11
-123.01111260566398
 21
 159.88228567653795
  0
LINE
  8
0
  6
CONTINUOUS
 62
     7
 10
-112.5
 20
 156.00000000000014
 11
-126.98888739433602
 21
 159.88228567653795
  0
LINE
  8
0
  6
CONTINUOUS
 62
     7
 10
-112.5
 20
 156.00000000000014
 11
-126.98888739433602
 21
 152.11771432346234
  0
TEXT
  8
0
  6
CONTINUOUS
 62
     7
 10
-135
 20
 160.00000000000014
 11
-115
 21
 160.00000000000014
 40
 12.5
 41
 0.8
  1
25
 50
 0
 72
  5
  0
LINE
  8
0
  6
CONTINUOUS
 62
     7
 10
-87.5
 20
 113
 11
-87.5
 21
 161.00000000000014
  0
LINE
  8
0
  6
CONTINUOUS
 62
     7
 10
-112.5
 20
 156.00000000000014
 11
-87.5
 21
 156.00000000000014
  0
LINE
  8
0
  6
CONTINUOUS
 62
     7
 10
-112.5
 20
 156.00000000000014
 11
-98.011112605663982
 21
 152.11771432346234
  0
LINE
  8
0
  6
CONTINUOUS
 62
     7
 10
-112.5
 20
 156.00000000000014
 11
-98.011112605663982
 21
 159.88228567653795
  0
LINE
  8
0
  6
CONTINUOUS
 62
     7
 10
-87.5
 20
 156.00000000000014
 11
-101.98888739433602
 21
 159.88228567653795
  0
LINE
  8
0
  6
CONTINUOUS
 62
     7
 10
-87.5
 20
 156.00000000000014
 11
-101.98888739433602
 21
 152.11771432346234
  0
TEXT
  8
0
  6
CONTINUOUS
 62
     7
 10
-110
 20
 160.00000000000014
 11
-90
 21
 160.00000000000014
 40
 12.5
 41
 0.8
  1
25
 50
 0
 72
  5
  0
LINE
  8
0
  6
CONTINUOUS
 62
     7
 10
-62.5
 20
 113
 11
-62.5
 21
 161.00000000000014
  0
LINE
  8
0
  6
CONTINUOUS
 62
     7
 10
-87.5
 20
 156.00000000000014
 11
-62.5
 21
 156.00000000000014
  0
LINE
  8
0
  6
CONTINUOUS
 62
     7
 10
-87.5
 20
 156.00000000000014
 11
-73.011112605663982
 21
 152.11771432346234
  0
LINE
  8
0
  6
CONTINUOUS
 62
     7
 10
-87.5
 20
 156.00000000000014
 11
-73.011112605663982
 21
 159.88228567653795
  0
LINE
  8
0
  6
CONTINUOUS
 62
     7
 10
-62.5
 20
 156.00000000000014
 11
-76.988887394336018
 21
 159.88228567653795
  0
LINE
  8
0
  6
CONTINUOUS
 62
     7
 10
-62.5
 20
 156.00000000000014
 11
-76.988887394336018
 21
 152.11771432346234
  0
TEXT
  8
0
  6
CONTINUOUS
 62
     7
 10
-85
 20
 160.00000000000014
 11
-65
 21
 160.00000000000014
 40
 12.5
 41
 0.8
  1
25
 50
 0
 72
  5
  0
LINE
  8
0
  6
CONTINUOUS
 62
     7
 10
-37.5
 20
 113
 11
-37.5
 21
 161.00000000000014
  0
LINE
  8
0
  6
CONTINUOUS
 62
     7
 10
-62.5
 20
 156.00000000000014
 11
-37.5
 21
 156.00000000000014
  0
LINE
  8
0
  6
CONTINUOUS
 62
     7
 10
-62.5
 20
 156.00000000000014
 11
-48.011112605663975
 21
 152.11771432346234
  0
LINE
  8
0
  6
CONTINUOUS
 62
     7
 10
-62.5
 20
 156.00000000000014
 11
-48.011112605663975
 21
 159.88228567653795
  0
LINE
  8
0
  6
CONTINUOUS
 62
     7
 10
-37.5
 20
 156.00000000000014
 11
-51.988887394336025
 21
 159.88228567653795
  0
LINE
  8
0
  6
CONTINUOUS
 62
     7
 10
-37.5
 20
 156.00000000000014
 11
-51.988887394336025
 21
 152.11771432346234
  0
TEXT
  8
0
  6
CONTINUOUS
 62
     7
 10
-60
 20
 160.00000000000014
 11
-40
 21
 160.00000000000014
 40
 12.5
 41
 0.8
  1
25
 50
 0
 72
  5
  0
LINE
  8
0
  6
CONTINUOUS
 62
     7
 10
-12.5
 20
 113
 11
-12.5
 21
 161.00000000000014
  0
LINE
  8
0
  6
CONTINUOUS
 62
     7
 10
-37.5
 20
 156.00000000000014
 11
-12.5
 21
 156.00000000000014
  0
LINE
  8
0
  6
CONTINUOUS
 62
     7
 10
-37.5
 20
 156.00000000000014
 11
-23.011112605663975
 21
 152.11771432346234
  0
LINE
  8
0
  6
CONTINUOUS
 62
     7
 10
-37.5
 20
 156.00000000000014
 11
-23.011112605663975
 21
 159.88228567653795
  0
LINE
  8
0
  6
CONTINUOUS
 62
     7
 10
-12.5
 20
 156.00000000000014
 11
-26.988887394336025
 21
 159.88228567653795
  0
LINE
  8
0
  6
CONTINUOUS
 62
     7
 10
-12.5
 20
 156.00000000000014
 11
-26.988887394336025
 21
 152.11771432346234
  0
TEXT
  8
0
  6
CONTINUOUS
 62
     7
 10
-35
 20
 160.00000000000014
 11
-15
 21
 160.00000000000014
 40
 12.5
 41
 0.8
  1
25
 50
 0
 72
  5
  0
LINE
  8
0
  6
CONTINUOUS
 62
     7
 10
 12.5
 20
 113
 11
 12.5
 21
 161.00000000000014
  0
LINE
  8
0
  6
CONTINUOUS
 62
     7
 10
-12.5
 20
 156.00000000000014
 11
 12.5
 21
 156.00000000000014
  0
LINE
  8
0
  6
CONTINUOUS
 62
     7
 10
-12.5
 20
 156.00000000000014
 11
 1.9888873943360252
 21
 152.11771432346234
  0
LINE
  8
0
  6
CONTINUOUS
 62
     7
 10
-12.5
 20
 156.00000000000014
 11
 1.9888873943360252
 21
 159.88228567653795
  0
LINE
  8
0
  6
CONTINUOUS
 62
     7
 10
 12.5
 20
 156.00000000000014
 11
-1.9888873943360252
 21
 159.88228567653795
  0
LINE
  8
0
  6
CONTINUOUS
 62
     7
 10
 12.5
 20
 156.00000000000014
 11
-1.9888873943360252
 21
 152.11771432346234
  0
TEXT
  8
0
  6
CONTINUOUS
 62
     7
 10
-10
 20
 160.00000000000014
 11
 10
 21
 160.00000000000014
 40
 12.5
 41
 0.8
  1
25
 50
 0
 72
  5
  0
LINE
  8
0
  6
CONTINUOUS
 62
     7
 10
 37.5
 20
 113
 11
 37.5
 21
 161.00000000000014
  0
LINE
  8
0
  6
CONTINUOUS
 62
     7
 10
 12.5
 20
 156.00000000000014
 11
 37.5
 21
 156.00000000000014
  0
LINE
  8
0
  6
CONTINUOUS
 62
     7
 10
 12.5
 20
 156.00000000000014
 11
 26.988887394336025
 21
 152.11771432346234
  0
LINE
  8
0
  6
CONTINUOUS
 62
     7
 10
 12.5
 20
 156.00000000000014
 11
 26.988887394336025
 21
 159.88228567653795
  0
LINE
  8
0
  6
CONTINUOUS
 62
     7
 10
 37.5
 20
 156.00000000000014
 11
 23.011112605663975
 21
 159.88228567653795
  0
LINE
  8
0
  6
CONTINUOUS
 62
     7
 10
 37.5
 20
 156.00000000000014
 11
 23.011112605663975
 21
 152.11771432346234
  0
TEXT
  8
0
  6
CONTINUOUS
 62
     7
 10
 15
 20
 160.00000000000014
 11
 35
 21
 160.00000000000014
 40
 12.5
 41
 0.8
  1
25
 50
 0
 72
  5
  0
LINE
  8
0
  6
CONTINUOUS
 62
     7
 10
 62.5
 20
 113
 11
 62.5
 21
 161.00000000000014
  0
LINE
  8
0
  6
CONTINUOUS
 62
     7
 10
 37.5
 20
 156.00000000000014
 11
 62.5
 21
 156.00000000000014
  0
LINE
  8
0
  6
CONTINUOUS
 62
     7
 10
 37.5
 20
 156.00000000000014
 11
 51.988887394336025
 21
 152.11771432346234
  0
LINE
  8
0
  6
CONTINUOUS
 62
     7
 10
 37.5
 20
 156.00000000000014
 11
 51.988887394336025
 21
 159.88228567653795
  0
LINE
  8
0
  6
CONTINUOUS
 62
     7
 10
 62.5
 20
 156.00000000000014
 11
 48.011112605663975
 21
 159.88228567653795
  0
LINE
  8
0
  6
CONTINUOUS
 62
     7
 10
 62.5
 20
 156.00000000000014
 11
 48.011112605663975
 21
 152.11771432346234
  0
TEXT
  8
0
  6
CONTINUOUS
 62
     7
 10
 40
 20
 160.00000000000014
 11
 60
 21
 160.00000000000014
 40
 12.5
 41
 0.8
  1
25
 50
 0
 72
  5
  0
LINE
  8
0
  6
CONTINUOUS
 62
     7
 10
 87.5
 20
 113
 11
 87.5
 21
 161.00000000000014
  0
LINE
  8
0
  6
CONTINUOUS
 62
     7
 10
 62.5
 20
 156.00000000000014
 11
 87.5
 21
 156.00000000000014
  0
LINE
  8
0
  6
CONTINUOUS
 62
     7
 10
 62.5
 20
 156.00000000000014
 11
 76.988887394336018
 21
 152.11771432346234
  0
LINE
  8
0
  6
CONTINUOUS
 62
     7
 10
 62.5
 20
 156.00000000000014
 11
 76.988887394336018
 21
 159.88228567653795
  0
LINE
  8
0
  6
CONTINUOUS
 62
     7
 10
 87.5
 20
 156.00000000000014
 11
 73.011112605663982
 21
 159.88228567653795
  0
LINE
  8
0
  6
CONTINUOUS
 62
     7
 10
 87.5
 20
 156.00000000000014
 11
 73.011112605663982
 21
 152.11771432346234
  0
TEXT
  8
0
  6
CONTINUOUS
 62
     7
 10
 65
 20
 160.00000000000014
 11
 85
 21
 160.00000000000014
 40
 12.5
 41
 0.8
  1
25
 50
 0
 72
  5
  0
LINE
  8
0
  6
CONTINUOUS
 62
     7
 10
 112.5
 20
 113
 11
 112.5
 21
 161.00000000000014
  0
LINE
  8
0
  6
CONTINUOUS
 62
     7
 10
 87.5
 20
 156.00000000000014
 11
 112.5
 21
 156.00000000000014
  0
LINE
  8
0
  6
CONTINUOUS
 62
     7
 10
 87.5
 20
 156.00000000000014
 11
 101.98888739433602
 21
 152.11771432346234
  0
LINE
  8
0
  6
CONTINUOUS
 62
     7
 10
 87.5
 20
 156.00000000000014
 11
 101.98888739433602
 21
 159.88228567653795
  0
LINE
  8
0
  6
CONTINUOUS
 62
     7
 10
 112.5
 20
 156.00000000000014
 11
 98.011112605663982
 21
 159.88228567653795
  0
LINE
  8
0
  6
CONTINUOUS
 62
     7
 10
 112.5
 20
 156.00000000000014
 11
 98.011112605663982
 21
 152.11771432346234
  0
TEXT
  8
0
  6
CONTINUOUS
 62
     7
 10
 90
 20
 160.00000000000014
 11
 110
 21
 160.00000000000014
 40
 12.5
 41
 0.8
  1
25
 50
 0
 72
  5
  0
LINE
  8
0
  6
CONTINUOUS
 62
     7
 10
 137.5
 20
 113
 11
 137.5
 21
 161.00000000000014
  0
LINE
  8
0
  6
CONTINUOUS
 62
     7
 10
 112.5
 20
 156.00000000000014
 11
 137.5
 21
 156.00000000000014
  0
LINE
  8
0
  6
CONTINUOUS
 62
     7
 10
 112.5
 20
 156.00000000000014
 11
 126.98888739433602
 21
 152.11771432346234
  0
LINE
  8
0
  6
CONTINUOUS
 62
     7
 10
 112.5
 20
 156.00000000000014
 11
 126.98888739433602
 21
 159.88228567653795
  0
LINE
  8
0
  6
CONTINUOUS
 62
     7
 10
 137.5
 20
 156.00000000000014
 11
 123.01111260566398
 21
 159.88228567653795
  0
LINE
  8
0
  6
CONTINUOUS
 62
     7
 10
 137.5
 20
 156.00000000000014
 11
 123.01111260566398
 21
 152.11771432346234
  0
TEXT
  8
0
  6
CONTINUOUS
 62
     7
 10
 115
 20
 160.00000000000014
 11
 135
 21
 160.00000000000014
 40
 12.5
 41
 0.8
  1
25
 50
 0
 72
  5
  0
LINE
  8
0
  6
CONTINUOUS
 62
     7
 10
 162.5
 20
 113
 11
 162.5
 21
 161.00000000000014
  0
LINE
  8
0
  6
CONTINUOUS
 62
     7
 10
 137.5
 20
 156.00000000000014
 11
 162.5
 21
 156.00000000000014
  0
LINE
  8
0
  6
CONTINUOUS
 62
     7
 10
 137.5
 20
 156.00000000000014
 11
 151.98888739433602
 21
 152.11771432346234
  0
LINE
  8
0
  6
CONTINUOUS
 62
     7
 10
 137.5
 20
 156.00000000000014
 11
 151.98888739433602
 21
 159.88228567653795
  0
LINE
  8
0
  6
CONTINUOUS
 62
     7
 10
 162.5
 20
 156.00000000000014
 11
 148.01111260566398
 21
 159.88228567653795
  0
LINE
  8
0
  6
CONTINUOUS
 62
     7
 10
 162.5
 20
 156.00000000000014
 11
 148.01111260566398
 21
 152.11771432346234
  0
TEXT
  8
0
  6
CONTINUOUS
 62
     7
 10
 140
 20
 160.00000000000014
 11
 160
 21
 160.00000000000014
 40
 12.5
 41
 0.8
  1
25
 50
 0
 72
  5
  0
LINE
  8
0
  6
CONTINUOUS
 62
     7
 10
 187.5
 20
 113
 11
 187.5
 21
 161.00000000000014
  0
LINE
  8
0
  6
CONTINUOUS
 62
     7
 10
 162.5
 20
 156.00000000000014
 11
 187.5
 21
 156.00000000000014
  0
LINE
  8
0
  6
CONTINUOUS
 62
     7
 10
 162.5
 20
 156.00000000000014
 11
 176.98888739433602
 21
 152.11771432346234
  0
LINE
  8
0
  6
CONTINUOUS
 62
     7
 10
 162.5
 20
 156.00000000000014
 11
 176.98888739433602
 21
 159.88228567653795
  0
LINE
  8
0
  6
CONTINUOUS
 62
     7
 10
 187.5
 20
 156.00000000000014
 11
 173.01111260566398
 21
 159.88228567653795
  0
LINE
  8
0
  6
CONTINUOUS
 62
     7
 10
 187.5
 20
 156.00000000000014
 11
 173.01111260566398
 21
 152.11771432346234
  0
TEXT
  8
0
  6
CONTINUOUS
 62
     7
 10
 165
 20
 160.00000000000014
 11
 185
 21
 160.00000000000014
 40
 12.5
 41
 0.8
  1
25
 50
 0
 72
  5
  0
LINE
  8
0
  6
CONTINUOUS
 62
     7
 10
 212.5
 20
 113
 11
 212.5
 21
 161.00000000000014
  0
LINE
  8
0
  6
CONTINUOUS
 62
     7
 10
 187.5
 20
 156.00000000000014
 11
 212.5
 21
 156.00000000000014
  0
LINE
  8
0
  6
CONTINUOUS
 62
     7
 10
 187.5
 20
 156.00000000000014
 11
 201.98888739433602
 21
 152.11771432346234
  0
LINE
  8
0
  6
CONTINUOUS
 62
     7
 10
 187.5
 20
 156.00000000000014
 11
 201.98888739433602
 21
 159.88228567653795
  0
LINE
  8
0
  6
CONTINUOUS
 62
     7
 10
 212.5
 20
 156.00000000000014
 11
 198.01111260566398
 21
 159.88228567653795
  0
LINE
  8
0
  6
CONTINUOUS
 62
     7
 10
 212.5
 20
 156.00000000000014
 11
 198.01111260566398
 21
 152.11771432346234
  0
TEXT
  8
0
  6
CONTINUOUS
 62
     7
 10
 190
 20
 160.00000000000014
 11
 210
 21
 160.00000000000014
 40
 12.5
 41
 0.8
  1
25
 50
 0
 72
  5
  0
LINE
  8
0
  6
CONTINUOUS
 62
     7
 10
 237.5
 20
 113
 11
 237.5
 21
 161.00000000000014
  0
LINE
  8
0
  6
CONTINUOUS
 62
     7
 10
 212.5
 20
 156.00000000000014
 11
 237.5
 21
 156.00000000000014
  0
LINE
  8
0
  6
CONTINUOUS
 62
     7
 10
 212.5
 20
 156.00000000000014
 11
 226.98888739433602
 21
 152.11771432346234
  0
LINE
  8
0
  6
CONTINUOUS
 62
     7
 10
 212.5
 20
 156.00000000000014
 11
 226.98888739433602
 21
 159.88228567653795
  0
LINE
  8
0
  6
CONTINUOUS
 62
     7
 10
 237.5
 20
 156.00000000000014
 11
 223.01111260566398
 21
 159.88228567653795
  0
LINE
  8
0
  6
CONTINUOUS
 62
     7
 10
 237.5
 20
 156.00000000000014
 11
 223.01111260566398
 21
 152.11771432346234
  0
TEXT
  8
0
  6
CONTINUOUS
 62
     7
 10
 215
 20
 160.00000000000014
 11
 235
 21
 160.00000000000014
 40
 12.5
 41
 0.8
  1
25
 50
 0
 72
  5
  0
LINE
  8
0
  6
CONTINUOUS
 62
     7
 10
 262.5
 20
 113
 11
 262.5
 21
 161.00000000000014
  0
LINE
  8
0
  6
CONTINUOUS
 62
     7
 10
 237.5
 20
 156.00000000000014
 11
 262.5
 21
 156.00000000000014
  0
LINE
  8
0
  6
CONTINUOUS
 62
     7
 10
 237.5
 20
 156.00000000000014
 11
 251.98888739433602
 21
 152.11771432346234
  0
LINE
  8
0
  6
CONTINUOUS
 62
     7
 10
 237.5
 20
 156.00000000000014
 11
 251.98888739433602
 21
 159.88228567653795
  0
LINE
  8
0
  6
CONTINUOUS
 62
     7
 10
 262.5
 20
 156.00000000000014
 11
 248.01111260566398
 21
 159.88228567653795
  0
LINE
  8
0
  6
CONTINUOUS
 62
     7
 10
 262.5
 20
 156.00000000000014
 11
 248.01111260566398
 21
 152.11771432346234
  0
TEXT
  8
0
  6
CONTINUOUS
 62
     7
 10
 240
 20
 160.00000000000014
 11
 260
 21
 160.00000000000014
 40
 12.5
 41
 0.8
  1
25
 50
 0
 72
  5
  0
LINE
  8
0
  6
CONTINUOUS
 62
     7
 10
 287.5
 20
 113
 11
 287.5
 21
 161.00000000000014
  0
LINE
  8
0
  6
CONTINUOUS
 62
     7
 10
 262.5
 20
 156.00000000000014
 11
 287.5
 21
 156.00000000000014
  0
LINE
  8
0
  6
CONTINUOUS
 62
     7
 10
 262.5
 20
 156.00000000000014
 11
 276.98888739433602
 21
 152.11771432346234
  0
LINE
  8
0
  6
CONTINUOUS
 62
     7
 10
 262.5
 20
 156.00000000000014
 11
 276.98888739433602
 21
 159.88228567653795
  0
LINE
  8
0
  6
CONTINUOUS
 62
     7
 10
 287.5
 20
 156.00000000000014
 11
 273.01111260566398
 21
 159.88228567653795
  0
LINE
  8
0
  6
CONTINUOUS
 62
     7
 10
 287.5
 20
 156.00000000000014
 11
 273.01111260566398
 21
 152.11771432346234
  0
TEXT
  8
0
  6
CONTINUOUS
 62
     7
 10
 265
 20
 160.00000000000014
 11
 285
 21
 160.00000000000014
 40
 12.5
 41
 0.8
  1
25
 50
 0
 72
  5
  0
LINE
  8
0
  6
CONTINUOUS
 62
     7
 10
 312.5
 20
 113
 11
 312.5
 21
 161.00000000000014
  0
LINE
  8
0
  6
CONTINUOUS
 62
     7
 10
 287.5
 20
 156.00000000000014
 11
 312.5
 21
 156.00000000000014
  0
LINE
  8
0
  6
CONTINUOUS
 62
     7
 10
 287.5
 20
 156.00000000000014
 11
 301.98888739433602
 21
 152.11771432346234
  0
LINE
  8
0
  6
CONTINUOUS
 62
     7
 10
 287.5
 20
 156.00000000000014
 11
 301.98888739433602
 21
 159.88228567653795
  0
LINE
  8
0
  6
CONTINUOUS
 62
     7
 10
 312.5
 20
 156.00000000000014
 11
 298.01111260566398
 21
 159.88228567653795
  0
LINE
  8
0
  6
CONTINUOUS
 62
     7
 10
 312.5
 20
 156.00000000000014
 11
 298.01111260566398
 21
 152.11771432346234
  0
TEXT
  8
0
  6
CONTINUOUS
 62
     7
 10
 290
 20
 160.00000000000014
 11
 310
 21
 160.00000000000014
 40
 12.5
 41
 0.8
  1
25
 50
 0
 72
  5
  0
LINE
  8
0
  6
CONTINUOUS
 62
     7
 10
 337.5
 20
 113
 11
 337.5
 21
 161.00000000000014
  0
LINE
  8
0
  6
CONTINUOUS
 62
     7
 10
 312.5
 20
 156.00000000000014
 11
 337.5
 21
 156.00000000000014
  0
LINE
  8
0
  6
CONTINUOUS
 62
     7
 10
 312.5
 20
 156.00000000000014
 11
 326.98888739433602
 21
 152.11771432346234
  0
LINE
  8
0
  6
CONTINUOUS
 62
     7
 10
 312.5
 20
 156.00000000000014
 11
 326.98888739433602
 21
 159.88228567653795
  0
LINE
  8
0
  6
CONTINUOUS
 62
     7
 10
 337.5
 20
 156.00000000000014
 11
 323.01111260566398
 21
 159.88228567653795
  0
LINE
  8
0
  6
CONTINUOUS
 62
     7
 10
 337.5
 20
 156.00000000000014
 11
 323.01111260566398
 21
 152.11771432346234
  0
TEXT
  8
0
  6
CONTINUOUS
 62
     7
 10
 315
 20
 160.00000000000014
 11
 335
 21
 160.00000000000014
 40
 12.5
 41
 0.8
  1
25
 50
 0
 72
  5
  0
LINE
  8
0
  6
CONTINUOUS
 62
     7
 10
 362.5
 20
 113
 11
 362.5
 21
 161.00000000000014
  0
LINE
  8
0
  6
CONTINUOUS
 62
     7
 10
 337.5
 20
 156.00000000000014
 11
 362.5
 21
 156.00000000000014
  0
LINE
  8
0
  6
CONTINUOUS
 62
     7
 10
 337.5
 20
 156.00000000000014
 11
 351.98888739433602
 21
 152.11771432346234
  0
LINE
  8
0
  6
CONTINUOUS
 62
     7
 10
 337.5
 20
 156.00000000000014
 11
 351.98888739433602
 21
 159.88228567653795
  0
LINE
  8
0
  6
CONTINUOUS
 62
     7
 10
 362.5
 20
 156.00000000000014
 11
 348.01111260566398
 21
 159.88228567653795
  0
LINE
  8
0
  6
CONTINUOUS
 62
     7
 10
 362.5
 20
 156.00000000000014
 11
 348.01111260566398
 21
 152.11771432346234
  0
TEXT
  8
0
  6
CONTINUOUS
 62
     7
 10
 340
 20
 160.00000000000014
 11
 360
 21
 160.00000000000014
 40
 12.5
 41
 0.8
  1
25
 50
 0
 72
  5
  0
LINE
  8
0
  6
CONTINUOUS
 62
     7
 10
 387.5
 20
 113
 11
 387.5
 21
 161.00000000000014
  0
LINE
  8
0
  6
CONTINUOUS
 62
     7
 10
 362.5
 20
 156.00000000000014
 11
 387.5
 21
 156.00000000000014
  0
LINE
  8
0
  6
CONTINUOUS
 62
     7
 10
 362.5
 20
 156.00000000000014
 11
 376.98888739433602
 21
 152.11771432346234
  0
LINE
  8
0
  6
CONTINUOUS
 62
     7
 10
 362.5
 20
 156.00000000000014
 11
 376.98888739433602
 21
 159.88228567653795
  0
LINE
  8
0
  6
CONTINUOUS
 62
     7
 10
 387.5
 20
 156.00000000000014
 11
 373.01111260566398
 21
 159.88228567653795
  0
LINE
  8
0
  6
CONTINUOUS
 62
     7
 10
 387.5
 20
 156.00000000000014
 11
 373.01111260566398
 21
 152.11771432346234
  0
TEXT
  8
0
  6
CONTINUOUS
 62
     7
 10
 365
 20
 160.00000000000014
 11
 385
 21
 160.00000000000014
 40
 12.5
 41
 0.8
  1
25
 50
 0
 72
  5
  0
LINE
  8
0
  6
CONTINUOUS
 62
     7
 10
 412.5
 20
 113
 11
 412.5
 21
 161.00000000000014
  0
LINE
  8
0
  6
CONTINUOUS
 62
     7
 10
 387.5
 20
 156.00000000000014
 11
 412.5
 21
 156.00000000000014
  0
LINE
  8
0
  6
CONTINUOUS
 62
     7
 10
 387.5
 20
 156.00000000000014
 11
 401.98888739433602
 21
 152.11771432346234
  0
LINE
  8
0
  6
CONTINUOUS
 62
     7
 10
 387.5
 20
 156.00000000000014
 11
 401.98888739433602
 21
 159.88228567653795
  0
LINE
  8
0
  6
CONTINUOUS
 62
     7
 10
 412.5
 20
 156.00000000000014
 11
 398.01111260566398
 21
 159.88228567653795
  0
LINE
  8
0
  6
CONTINUOUS
 62
     7
 10
 412.5
 20
 156.00000000000014
 11
 398.01111260566398
 21
 152.11771432346234
  0
TEXT
  8
0
  6
CONTINUOUS
 62
     7
 10
 390
 20
 160.00000000000014
 11
 410
 21
 160.00000000000014
 40
 12.5
 41
 0.8
  1
25
 50
 0
 72
  5
  0
LINE
  8
0
  6
CONTINUOUS
 62
     7
 10
 437.5
 20
 113
 11
 437.5
 21
 161.00000000000014
  0
LINE
  8
0
  6
CONTINUOUS
 62
     7
 10
 412.5
 20
 156.00000000000014
 11
 437.5
 21
 156.00000000000014
  0
LINE
  8
0
  6
CONTINUOUS
 62
     7
 10
 412.5
 20
 156.00000000000014
 11
 426.98888739433602
 21
 152.11771432346234
  0
LINE
  8
0
  6
CONTINUOUS
 62
     7
 10
 412.5
 20
 156.00000000000014
 11
 426.98888739433602
 21
 159.88228567653795
  0
LINE
  8
0
  6
CONTINUOUS
 62
     7
 10
 437.5
 20
 156.00000000000014
 11
 423.01111260566398
 21
 159.88228567653795
  0
LINE
  8
0
  6
CONTINUOUS
 62
     7
 10
 437.5
 20
 156.00000000000014
 11
 423.01111260566398
 21
 152.11771432346234
  0
TEXT
  8
0
  6
CONTINUOUS
 62
     7
 10
 415
 20
 160.00000000000014
 11
 435
 21
 160.00000000000014
 40
 12.5
 41
 0.8
  1
25
 50
 0
 72
  5
  0
LINE
  8
0
  6
CONTINUOUS
 62
     7
 10
 462.5
 20
 113
 11
 462.5
 21
 161.00000000000014
  0
LINE
  8
0
  6
CONTINUOUS
 62
     7
 10
 437.5
 20
 156.00000000000014
 11
 462.5
 21
 156.00000000000014
  0
LINE
  8
0
  6
CONTINUOUS
 62
     7
 10
 437.5
 20
 156.00000000000014
 11
 451.98888739433602
 21
 152.11771432346234
  0
LINE
  8
0
  6
CONTINUOUS
 62
     7
 10
 437.5
 20
 156.00000000000014
 11
 451.98888739433602
 21
 159.88228567653795
  0
LINE
  8
0
  6
CONTINUOUS
 62
     7
 10
 462.5
 20
 156.00000000000014
 11
 448.01111260566398
 21
 159.88228567653795
  0
LINE
  8
0
  6
CONTINUOUS
 62
     7
 10
 462.5
 20
 156.00000000000014
 11
 448.01111260566398
 21
 152.11771432346234
  0
TEXT
  8
0
  6
CONTINUOUS
 62
     7
 10
 440
 20
 160.00000000000014
 11
 460
 21
 160.00000000000014
 40
 12.5
 41
 0.8
  1
25
 50
 0
 72
  5
  0
LINE
  8
0
  6
CONTINUOUS
 62
     7
 10
 487.5
 20
 113
 11
 487.5
 21
 161.00000000000014
  0
LINE
  8
0
  6
CONTINUOUS
 62
     7
 10
 462.5
 20
 156.00000000000014
 11
 487.5
 21
 156.00000000000014
  0
LINE
  8
0
  6
CONTINUOUS
 62
     7
 10
 462.5
 20
 156.00000000000014
 11
 476.98888739433602
 21
 152.11771432346234
  0
LINE
  8
0
  6
CONTINUOUS
 62
     7
 10
 462.5
 20
 156.00000000000014
 11
 476.98888739433602
 21
 159.88228567653795
  0
LINE
  8
0
  6
CONTINUOUS
 62
     7
 10
 487.5
 20
 156.00000000000014
 11
 473.01111260566398
 21
 159.88228567653795
  0
LINE
  8
0
  6
CONTINUOUS
 62
     7
 10
 487.5
 20
 156.00000000000014
 11
 473.01111260566398
 21
 152.11771432346234
  0
TEXT
  8
0
  6
CONTINUOUS
 62
     7
 10
 465
 20
 160.00000000000014
 11
 485
 21
 160.00000000000014
 40
 12.5
 41
 0.8
  1
25
 50
 0
 72
  5
  0
LINE
  8
0
  6
CONTINUOUS
 62
     7
 10
 512.5
 20
 113
 11
 512.5
 21
 161.00000000000014
  0
LINE
  8
0
  6
CONTINUOUS
 62
     7
 10
 487.5
 20
 156.00000000000014
 11
 512.5
 21
 156.00000000000014
  0
LINE
  8
0
  6
CONTINUOUS
 62
     7
 10
 487.5
 20
 156.00000000000014
 11
 501.98888739433602
 21
 152.11771432346234
  0
LINE
  8
0
  6
CONTINUOUS
 62
     7
 10
 487.5
 20
 156.00000000000014
 11
 501.98888739433602
 21
 159.88228567653795
  0
LINE
  8
0
  6
CONTINUOUS
 62
     7
 10
 512.5
 20
 156.00000000000014
 11
 498.01111260566398
 21
 159.88228567653795
  0
LINE
  8
0
  6
CONTINUOUS
 62
     7
 10
 512.5
 20
 156.00000000000014
 11
 498.01111260566398
 21
 152.11771432346234
  0
TEXT
  8
0
  6
CONTINUOUS
 62
     7
 10
 490
 20
 160.00000000000014
 11
 510
 21
 160.00000000000014
 40
 12.5
 41
 0.8
  1
25
 50
 0
 72
  5
  0
LINE
  8
0
  6
CONTINUOUS
 62
     7
 10
 537.5
 20
 113
 11
 537.5
 21
 161.00000000000014
  0
LINE
  8
0
  6
CONTINUOUS
 62
     7
 10
 512.5
 20
 156.00000000000014
 11
 537.5
 21
 156.00000000000014
  0
LINE
  8
0
  6
CONTINUOUS
 62
     7
 10
 512.5
 20
 156.00000000000014
 11
 526.98888739433607
 21
 152.11771432346234
  0
LINE
  8
0
  6
CONTINUOUS
 62
     7
 10
 512.5
 20
 156.00000000000014
 11
 526.98888739433607
 21
 159.88228567653795
  0
LINE
  8
0
  6
CONTINUOUS
 62
     7
 10
 537.5
 20
 156.00000000000014
 11
 523.01111260566393
 21
 159.88228567653795
  0
LINE
  8
0
  6
CONTINUOUS
 62
     7
 10
 537.5
 20
 156.00000000000014
 11
 523.01111260566393
 21
 152.11771432346234
  0
TEXT
  8
0
  6
CONTINUOUS
 62
     7
 10
 515
 20
 160.00000000000014
 11
 535
 21
 160.00000000000014
 40
 12.5
 41
 0.8
  1
25
 50
 0
 72
  5
  0
LINE
  8
0
  6
CONTINUOUS
 62
     7
 10
 562.5
 20
 113
 11
 562.5
 21
 161.00000000000014
  0
LINE
  8
0
  6
CONTINUOUS
 62
     7
 10
 537.5
 20
 156.00000000000014
 11
 562.5
 21
 156.00000000000014
  0
LINE
  8
0
  6
CONTINUOUS
 62
     7
 10
 537.5
 20
 156.00000000000014
 11
 551.98888739433607
 21
 152.11771432346234
  0
LINE
  8
0
  6
CONTINUOUS
 62
     7
 10
 537.5
 20
 156.00000000000014
 11
 551.98888739433607
 21
 159.88228567653795
  0
LINE
  8
0
  6
CONTINUOUS
 62
     7
 10
 562.5
 20
 156.00000000000014
 11
 548.01111260566393
 21
 159.88228567653795
  0
LINE
  8
0
  6
CONTINUOUS
 62
     7
 10
 562.5
 20
 156.00000000000014
 11
 548.01111260566393
 21
 152.11771432346234
  0
TEXT
  8
0
  6
CONTINUOUS
 62
     7
 10
 540
 20
 160.00000000000014
 11
 560
 21
 160.00000000000014
 40
 12.5
 41
 0.8
  1
25
 50
 0
 72
  5
  0
LINE
  8
0
  6
CONTINUOUS
 62
     7
 10
 587.5
 20
 113
 11
 587.5
 21
 161.00000000000014
  0
LINE
  8
0
  6
CONTINUOUS
 62
     7
 10
 562.5
 20
 156.00000000000014
 11
 587.5
 21
 156.00000000000014
  0
LINE
  8
0
  6
CONTINUOUS
 62
     7
 10
 562.5
 20
 156.00000000000014
 11
 576.98888739433607
 21
 152.11771432346234
  0
LINE
  8
0
  6
CONTINUOUS
 62
     7
 10
 562.5
 20
 156.00000000000014
 11
 576.98888739433607
 21
 159.88228567653795
  0
LINE
  8
0
  6
CONTINUOUS
 62
     7
 10
 587.5
 20
 156.00000000000014
 11
 573.01111260566393
 21
 159.88228567653795
  0
LINE
  8
0
  6
CONTINUOUS
 62
     7
 10
 587.5
 20
 156.00000000000014
 11
 573.01111260566393
 21
 152.11771432346234
  0
TEXT
  8
0
  6
CONTINUOUS
 62
     7
 10
 565
 20
 160.00000000000014
 11
 585
 21
 160.00000000000014
 40
 12.5
 41
 0.8
  1
25
 50
 0
 72
  5
  0
LINE
  8
0
  6
CONTINUOUS
 62
     7
 10
 612.5
 20
 113
 11
 612.5
 21
 161.00000000000014
  0
LINE
  8
0
  6
CONTINUOUS
 62
     7
 10
 587.5
 20
 156.00000000000014
 11
 612.5
 21
 156.00000000000014
  0
LINE
  8
0
  6
CONTINUOUS
 62
     7
 10
 587.5
 20
 156.00000000000014
 11
 601.98888739433607
 21
 152.11771432346234
  0
LINE
  8
0
  6
CONTINUOUS
 62
     7
 10
 587.5
 20
 156.00000000000014
 11
 601.98888739433607
 21
 159.88228567653795
  0
LINE
  8
0
  6
CONTINUOUS
 62
     7
 10
 612.5
 20
 156.00000000000014
 11
 598.01111260566393
 21
 159.88228567653795
  0
LINE
  8
0
  6
CONTINUOUS
 62
     7
 10
 612.5
 20
 156.00000000000014
 11
 598.01111260566393
 21
 152.11771432346234
  0
TEXT
  8
0
  6
CONTINUOUS
 62
     7
 10
 590
 20
 160.00000000000014
 11
 610
 21
 160.00000000000014
 40
 12.5
 41
 0.8
  1
25
 50
 0
 72
  5
  0
LINE
  8
0
  6
CONTINUOUS
 62
     7
 10
 625
 20
 115
 11
 625
 21
 161.00000000000014
  0
LINE
  8
0
  6
CONTINUOUS
 62
     7
 10
 612.5
 20
 156.00000000000014
 11
 625
 21
 156.00000000000014
  0
TEXT
  8
0
  6
CONTINUOUS
 62
     7
 10
 627.5
 20
 160.00000000000014
 11
 667.5
 21
 160.00000000000014
 40
 12.5
 41
 0.8
  1
12.5
 50
 0
 72
  5
  0
LINE
  8
0
  6
CONTINUOUS
 62
     7
 10
 667.5
 20
 156.00000000000014
 11
 625
 21
 156.00000000000014
  0
LINE
  8
0
  6
CONTINUOUS
 62
     7
 10
 625
 20
 156.00000000000014
 11
 639.48888739433607
 21
 152.11771432346234
  0
LINE
  8
0
  6
CONTINUOUS
 62
     7
 10
 625
 20
 156.00000000000014
 11
 639.48888739433607
 21
 159.88228567653795
  0
LINE
  8
0
  6
CONTINUOUS
 62
     7
 10
-625
 20
 115
 11
-625
 21
 186.00000000000014
  0
LINE
  8
0
  6
CONTINUOUS
 62
     7
 10
 625
 20
 115
 11
 625
 21
 186.00000000000014
  0
LINE
  8
0
  6
CONTINUOUS
 62
     7
 10
-625
 20
 181.00000000000014
 11
 625
 21
 181.00000000000014
  0
LINE
  8
0
  6
CONTINUOUS
 62
     7
 10
-625
 20
 181.00000000000014
 11
-610.51111260566393
 21
 177.11771432346234
  0
LINE
  8
0
  6
CONTINUOUS
 62
     7
 10
-625
 20
 181.00000000000014
 11
-610.51111260566393
 21
 184.88228567653795
  0
LINE
  8
0
  6
CONTINUOUS
 62
     7
 10
 625
 20
 181.00000000000014
 11
 610.51111260566393
 21
 184.88228567653795
  0
LINE
  8
0
  6
CONTINUOUS
 62
     7
 10
 625
 20
 181.00000000000014
 11
 610.51111260566393
 21
 177.11771432346234
  0
TEXT
  8
0
  6
CONTINUOUS
 62
     7
 10
-20
 20
 185.00000000000014
 11
 20
 21
 185.00000000000014
 40
 12.5
 41
 0.8
  1
1250
 50
 0
 72
  5
  0
LINE
  8
0
  6
CONTINUOUS
 62
     7
 10
-630
 20
-105
 11
-647.80255932385171
 21
-105
  0
LINE
  8
0
  6
CONTINUOUS
 62
     7
 10
-630
 20
-99
 11
-647.80255932385171
 21
-99
  0
LINE
  8
0
  6
CONTINUOUS
 62
     7
 10
-642.80255932385171
 20
-105
 11
-642.80255932385171
 21
-99
  0
TEXT
  8
0
  6
CONTINUOUS
 62
     7
 10
-646.80255932385171
 20
-107
 11
-646.80255932385171
 21
-97
 40
 12.5
 41
 0.8
  1
6
 50
 90.000001535234517
 72
  5
  0
LINE
  8
0
  6
CONTINUOUS
 62
     7
 10
-642.80255932385171
 20
-84
 11
-642.80255932385171
 21
-99
  0
LINE
  8
0
  6
CONTINUOUS
 62
     7
 10
-642.80255932385171
 20
-99
 11
-638.92027364731393
 21
-84.511112605663982
  0
LINE
  8
0
  6
CONTINUOUS
 62
     7
 10
-642.80255932385171
 20
-99
 11
-646.68484500038949
 21
-84.511112605663982
  0
LINE
  8
0
  6
CONTINUOUS
 62
     7
 10
-642.80255932385171
 20
-120
 11
-642.80255932385171
 21
-105
  0
LINE
  8
0
  6
CONTINUOUS
 62
     7
 10
-642.80255932385171
 20
-105
 11
-646.68484500038949
 21
-119.48888739433602
  0
LINE
  8
0
  6
CONTINUOUS
 62
     7
 10
-642.80255932385171
 20
-105
 11
-638.92027364731393
 21
-119.48888739433602
  0
LINE
  8
0
  6
CONTINUOUS
 62
     7
 10
-630
 20
 110
 11
-647.80255932385171
 21
 110
  0
LINE
  8
0
  6
CONTINUOUS
 62
     7
 10
-630
 20
 90
 11
-647.80255932385171
 21
 90
  0
LINE
  8
0
  6
CONTINUOUS
 62
     7
 10
-642.80255932385171
 20
 110
 11
-642.80255932385171
 21
 90
  0
TEXT
  8
0
  6
CONTINUOUS
 62
     7
 10
-646.80255932385171
 20
 90
 11
-646.80255932385171
 21
 110
 40
 12.5
 41
 0.8
  1
20
 50
 90.000001535234517
 72
  5
  0
LINE
  8
0
  6
CONTINUOUS
 62
     7
 10
-642.80255932385171
 20
 121
 11
-642.80255932385171
 21
 110
  0
LINE
  8
0
  6
CONTINUOUS
 62
     7
 10
-642.80255932385171
 20
 110
 11
-638.92027364731393
 21
 124.48888739433602
  0
LINE
  8
0
  6
CONTINUOUS
 62
     7
 10
-642.80255932385171
 20
 110
 11
-646.68484500038949
 21
 124.48888739433602
  0
LINE
  8
0
  6
CONTINUOUS
 62
     7
 10
-642.80255932385171
 20
 75
 11
-642.80255932385171
 21
 90
  0
LINE
  8
0
  6
CONTINUOUS
 62
     7
 10
-642.80255932385171
 20
 90
 11
-646.68484500038949
 21
 75.511112605663982
  0
LINE
  8
0
  6
CONTINUOUS
 62
     7
 10
-642.80255932385171
 20
 90
 11
-638.92027364731393
 21
 75.511112605663982
  0
LINE
  8
0
  6
CONTINUOUS
 62
     7
 10
-612.5
 20
 100
 11
-594.79610417739741
 21
 69.335952943345987
  0
LINE
  8
0
  6
CONTINUOUS
 62
     7
 10
-612.5
 20
 100
 11
-608.61771432346222
 21
 85.511112605663982
  0
LINE
  8
0
  6
CONTINUOUS
 62
     7
 10
-612.5
 20
 100
 11
-601.89339828220182
 21
 89.393398282201801
  0
LINE
  8
0
  6
CONTINUOUS
 62
     7
 10
-594.79610417739741
 20
 69.335952943345987
 11
-540.79610417739741
 21
 69.335952943345987
  0
TEXT
  8
0
  6
CONTINUOUS
 62
     7
 10
-594.79610417739741
 20
 71.835952943345987
 11
-540.79610417739741
 21
 71.835952943345987
 40
 12.5
 41
 0.8
  1
５０－Ｍ５
 50
 0
 72
  5
  0
LINE
  8
0
  6
DOT
 62
     7
 10
-615
 20
-98.999999999999858
 11
-615
 21
-105
  0
LINE
  8
0
  6
DOT
 62
     7
 10
-614.5
 20
-98.999999999999858
 11
-614.5
 21
-105
  0
LINE
  8
0
  6
DASHDOT
 62
     7
 10
-612.5
 20
-93.999999999999858
 11
-612.5
 21
-110
  0
LINE
  8
0
  6
DOT
 62
     7
 10
-610
 20
-98.999999999999858
 11
-610
 21
-105
  0
LINE
  8
0
  6
DOT
 62
     7
 10
-610.5
 20
-98.999999999999858
 11
-610.5
 21
-105
  0
LINE
  8
0
  6
DOT
 62
     7
 10
-590
 20
-98.999999999999858
 11
-590
 21
-105
  0
LINE
  8
0
  6
DOT
 62
     7
 10
-589.5
 20
-98.999999999999858
 11
-589.5
 21
-105
  0
LINE
  8
0
  6
DASHDOT
 62
     7
 10
-587.5
 20
-93.999999999999858
 11
-587.5
 21
-110
  0
LINE
  8
0
  6
DOT
 62
     7
 10
-585
 20
-98.999999999999858
 11
-585
 21
-105
  0
LINE
  8
0
  6
DOT
 62
     7
 10
-585.5
 20
-98.999999999999858
 11
-585.5
 21
-105
  0
LINE
  8
0
  6
DOT
 62
     7
 10
-565
 20
-98.999999999999858
 11
-565
 21
-105
  0
LINE
  8
0
  6
DOT
 62
     7
 10
-564.5
 20
-98.999999999999858
 11
-564.5
 21
-105
  0
LINE
  8
0
  6
DASHDOT
 62
     7
 10
-562.5
 20
-93.999999999999858
 11
-562.5
 21
-110
  0
LINE
  8
0
  6
DOT
 62
     7
 10
-560
 20
-98.999999999999858
 11
-560
 21
-105
  0
LINE
  8
0
  6
DOT
 62
     7
 10
-560.5
 20
-98.999999999999858
 11
-560.5
 21
-105
  0
LINE
  8
0
  6
DOT
 62
     7
 10
-540
 20
-98.999999999999858
 11
-540
 21
-105
  0
LINE
  8
0
  6
DOT
 62
     7
 10
-539.5
 20
-98.999999999999858
 11
-539.5
 21
-105
  0
LINE
  8
0
  6
DASHDOT
 62
     7
 10
-537.5
 20
-93.999999999999858
 11
-537.5
 21
-110
  0
LINE
  8
0
  6
DOT
 62
     7
 10
-535
 20
-98.999999999999858
 11
-535
 21
-105
  0
LINE
  8
0
  6
DOT
 62
     7
 10
-535.5
 20
-98.999999999999858
 11
-535.5
 21
-105
  0
LINE
  8
0
  6
DOT
 62
     7
 10
-515
 20
-98.999999999999858
 11
-515
 21
-105
  0
LINE
  8
0
  6
DOT
 62
     7
 10
-514.5
 20
-98.999999999999858
 11
-514.5
 21
-105
  0
LINE
  8
0
  6
DASHDOT
 62
     7
 10
-512.5
 20
-93.999999999999858
 11
-512.5
 21
-110
  0
LINE
  8
0
  6
DOT
 62
     7
 10
-510
 20
-98.999999999999858
 11
-510
 21
-105
  0
LINE
  8
0
  6
DOT
 62
     7
 10
-510.5
 20
-98.999999999999858
 11
-510.5
 21
-105
  0
LINE
  8
0
  6
DOT
 62
     7
 10
-490
 20
-98.999999999999858
 11
-490
 21
-105
  0
LINE
  8
0
  6
DOT
 62
     7
 10
-489.5
 20
-98.999999999999858
 11
-489.5
 21
-105
  0
LINE
  8
0
  6
DASHDOT
 62
     7
 10
-487.5
 20
-93.999999999999858
 11
-487.5
 21
-110
  0
LINE
  8
0
  6
DOT
 62
     7
 10
-485
 20
-98.999999999999858
 11
-485
 21
-105
  0
LINE
  8
0
  6
DOT
 62
     7
 10
-485.5
 20
-98.999999999999858
 11
-485.5
 21
-105
  0
LINE
  8
0
  6
DOT
 62
     7
 10
-465
 20
-98.999999999999858
 11
-465
 21
-105
  0
LINE
  8
0
  6
DOT
 62
     7
 10
-464.5
 20
-98.999999999999858
 11
-464.5
 21
-105
  0
LINE
  8
0
  6
DASHDOT
 62
     7
 10
-462.5
 20
-93.999999999999858
 11
-462.5
 21
-110
  0
LINE
  8
0
  6
DOT
 62
     7
 10
-460
 20
-98.999999999999858
 11
-460
 21
-105
  0
LINE
  8
0
  6
DOT
 62
     7
 10
-460.5
 20
-98.999999999999858
 11
-460.5
 21
-105
  0
LINE
  8
0
  6
DOT
 62
     7
 10
-440
 20
-98.999999999999858
 11
-440
 21
-105
  0
LINE
  8
0
  6
DOT
 62
     7
 10
-439.5
 20
-98.999999999999858
 11
-439.5
 21
-105
  0
LINE
  8
0
  6
DASHDOT
 62
     7
 10
-437.5
 20
-93.999999999999858
 11
-437.5
 21
-110
  0
LINE
  8
0
  6
DOT
 62
     7
 10
-435
 20
-98.999999999999858
 11
-435
 21
-105
  0
LINE
  8
0
  6
DOT
 62
     7
 10
-435.5
 20
-98.999999999999858
 11
-435.5
 21
-105
  0
LINE
  8
0
  6
DOT
 62
     7
 10
-415
 20
-98.999999999999858
 11
-415
 21
-105
  0
LINE
  8
0
  6
DOT
 62
     7
 10
-414.5
 20
-98.999999999999858
 11
-414.5
 21
-105
  0
LINE
  8
0
  6
DASHDOT
 62
     7
 10
-412.5
 20
-93.999999999999858
 11
-412.5
 21
-110
  0
LINE
  8
0
  6
DOT
 62
     7
 10
-410
 20
-98.999999999999858
 11
-410
 21
-105
  0
LINE
  8
0
  6
DOT
 62
     7
 10
-410.5
 20
-98.999999999999858
 11
-410.5
 21
-105
  0
LINE
  8
0
  6
DOT
 62
     7
 10
-390
 20
-98.999999999999858
 11
-390
 21
-105
  0
LINE
  8
0
  6
DOT
 62
     7
 10
-389.5
 20
-98.999999999999858
 11
-389.5
 21
-105
  0
LINE
  8
0
  6
DASHDOT
 62
     7
 10
-387.5
 20
-93.999999999999858
 11
-387.5
 21
-110
  0
LINE
  8
0
  6
DOT
 62
     7
 10
-385
 20
-98.999999999999858
 11
-385
 21
-105
  0
LINE
  8
0
  6
DOT
 62
     7
 10
-385.5
 20
-98.999999999999858
 11
-385.5
 21
-105
  0
CIRCLE
  8
0
  6
CONTINUOUS
 62
     7
 10
-612.5
 20
 100
 40
 2.5
  0
CIRCLE
  8
0
  6
CONTINUOUS
 62
     7
 10
-612.5
 20
 100
 40
 2
  0
LINE
  8
0
  6
DASHDOT
 62
     7
 10
-608.5
 20
 100
 11
-616.5
 21
 100
  0
LINE
  8
0
  6
DASHDOT
 62
     7
 10
-612.5
 20
 104
 11
-612.5
 21
 96
  0
CIRCLE
  8
0
  6
CONTINUOUS
 62
     7
 10
-587.5
 20
 100
 40
 2.5
  0
CIRCLE
  8
0
  6
CONTINUOUS
 62
     7
 10
-587.5
 20
 100
 40
 2
  0
LINE
  8
0
  6
DASHDOT
 62
     7
 10
-583.5
 20
 100
 11
-591.5
 21
 100
  0
LINE
  8
0
  6
DASHDOT
 62
     7
 10
-587.5
 20
 104
 11
-587.5
 21
 96
  0
CIRCLE
  8
0
  6
CONTINUOUS
 62
     7
 10
-562.5
 20
 100
 40
 2.5
  0
CIRCLE
  8
0
  6
CONTINUOUS
 62
     7
 10
-562.5
 20
 100
 40
 2
  0
LINE
  8
0
  6
DASHDOT
 62
     7
 10
-558.5
 20
 100
 11
-566.5
 21
 100
  0
LINE
  8
0
  6
DASHDOT
 62
     7
 10
-562.5
 20
 104
 11
-562.5
 21
 96
  0
CIRCLE
  8
0
  6
CONTINUOUS
 62
     7
 10
-537.5
 20
 100
 40
 2.5
  0
CIRCLE
  8
0
  6
CONTINUOUS
 62
     7
 10
-537.5
 20
 100
 40
 2
  0
LINE
  8
0
  6
DASHDOT
 62
     7
 10
-533.5
 20
 100
 11
-541.5
 21
 100
  0
LINE
  8
0
  6
DASHDOT
 62
     7
 10
-537.5
 20
 104
 11
-537.5
 21
 96
  0
CIRCLE
  8
0
  6
CONTINUOUS
 62
     7
 10
-512.5
 20
 100
 40
 2.5
  0
CIRCLE
  8
0
  6
CONTINUOUS
 62
     7
 10
-512.5
 20
 100
 40
 2
  0
LINE
  8
0
  6
DASHDOT
 62
     7
 10
-508.5
 20
 100
 11
-516.5
 21
 100
  0
LINE
  8
0
  6
DASHDOT
 62
     7
 10
-512.5
 20
 104
 11
-512.5
 21
 96
  0
CIRCLE
  8
0
  6
CONTINUOUS
 62
     7
 10
-487.5
 20
 100
 40
 2.5
  0
CIRCLE
  8
0
  6
CONTINUOUS
 62
     7
 10
-487.5
 20
 100
 40
 2
  0
LINE
  8
0
  6
DASHDOT
 62
     7
 10
-483.5
 20
 100
 11
-491.5
 21
 100
  0
LINE
  8
0
  6
DASHDOT
 62
     7
 10
-487.5
 20
 104
 11
-487.5
 21
 96
  0
CIRCLE
  8
0
  6
CONTINUOUS
 62
     7
 10
-462.5
 20
 100
 40
 2.5
  0
CIRCLE
  8
0
  6
CONTINUOUS
 62
     7
 10
-462.5
 20
 100
 40
 2
  0
LINE
  8
0
  6
DASHDOT
 62
     7
 10
-458.5
 20
 100
 11
-466.5
 21
 100
  0
LINE
  8
0
  6
DASHDOT
 62
     7
 10
-462.5
 20
 104
 11
-462.5
 21
 96
  0
CIRCLE
  8
0
  6
CONTINUOUS
 62
     7
 10
-437.5
 20
 100
 40
 2.5
  0
CIRCLE
  8
0
  6
CONTINUOUS
 62
     7
 10
-437.5
 20
 100
 40
 2
  0
LINE
  8
0
  6
DASHDOT
 62
     7
 10
-433.5
 20
 100
 11
-441.5
 21
 100
  0
LINE
  8
0
  6
DASHDOT
 62
     7
 10
-437.5
 20
 104
 11
-437.5
 21
 96
  0
CIRCLE
  8
0
  6
CONTINUOUS
 62
     7
 10
-412.5
 20
 100
 40
 2.5
  0
CIRCLE
  8
0
  6
CONTINUOUS
 62
     7
 10
-412.5
 20
 100
 40
 2
  0
LINE
  8
0
  6
DASHDOT
 62
     7
 10
-408.5
 20
 100
 11
-416.5
 21
 100
  0
LINE
  8
0
  6
DASHDOT
 62
     7
 10
-412.5
 20
 104
 11
-412.5
 21
 96
  0
CIRCLE
  8
0
  6
CONTINUOUS
 62
     7
 10
-387.5
 20
 100
 40
 2.5
  0
CIRCLE
  8
0
  6
CONTINUOUS
 62
     7
 10
-387.5
 20
 100
 40
 2
  0
LINE
  8
0
  6
DASHDOT
 62
     7
 10
-383.5
 20
 100
 11
-391.5
 21
 100
  0
LINE
  8
0
  6
DASHDOT
 62
     7
 10
-387.5
 20
 104
 11
-387.5
 21
 96
  0
CIRCLE
  8
0
  6
CONTINUOUS
 62
     7
 10
-362.5
 20
 100
 40
 2.5
  0
CIRCLE
  8
0
  6
CONTINUOUS
 62
     7
 10
-362.5
 20
 100
 40
 2
  0
LINE
  8
0
  6
DASHDOT
 62
     7
 10
-358.5
 20
 100
 11
-366.5
 21
 100
  0
LINE
  8
0
  6
DASHDOT
 62
     7
 10
-362.5
 20
 104
 11
-362.5
 21
 96
  0
CIRCLE
  8
0
  6
CONTINUOUS
 62
     7
 10
-337.5
 20
 100
 40
 2.5
  0
CIRCLE
  8
0
  6
CONTINUOUS
 62
     7
 10
-337.5
 20
 100
 40
 2
  0
LINE
  8
0
  6
DASHDOT
 62
     7
 10
-333.5
 20
 100
 11
-341.5
 21
 100
  0
LINE
  8
0
  6
DASHDOT
 62
     7
 10
-337.5
 20
 104
 11
-337.5
 21
 96
  0
CIRCLE
  8
0
  6
CONTINUOUS
 62
     7
 10
-312.5
 20
 100
 40
 2.5
  0
CIRCLE
  8
0
  6
CONTINUOUS
 62
     7
 10
-312.5
 20
 100
 40
 2
  0
LINE
  8
0
  6
DASHDOT
 62
     7
 10
-308.5
 20
 100
 11
-316.5
 21
 100
  0
LINE
  8
0
  6
DASHDOT
 62
     7
 10
-312.5
 20
 104
 11
-312.5
 21
 96
  0
CIRCLE
  8
0
  6
CONTINUOUS
 62
     7
 10
-287.5
 20
 100
 40
 2.5
  0
CIRCLE
  8
0
  6
CONTINUOUS
 62
     7
 10
-287.5
 20
 100
 40
 2
  0
LINE
  8
0
  6
DASHDOT
 62
     7
 10
-283.5
 20
 100
 11
-291.5
 21
 100
  0
LINE
  8
0
  6
DASHDOT
 62
     7
 10
-287.5
 20
 104
 11
-287.5
 21
 96
  0
CIRCLE
  8
0
  6
CONTINUOUS
 62
     7
 10
-262.5
 20
 100
 40
 2.5
  0
CIRCLE
  8
0
  6
CONTINUOUS
 62
     7
 10
-262.5
 20
 100
 40
 2
  0
LINE
  8
0
  6
DASHDOT
 62
     7
 10
-258.5
 20
 100
 11
-266.5
 21
 100
  0
LINE
  8
0
  6
DASHDOT
 62
     7
 10
-262.5
 20
 104
 11
-262.5
 21
 96
  0
CIRCLE
  8
0
  6
CONTINUOUS
 62
     7
 10
-237.5
 20
 100
 40
 2.5
  0
CIRCLE
  8
0
  6
CONTINUOUS
 62
     7
 10
-237.5
 20
 100
 40
 2
  0
LINE
  8
0
  6
DASHDOT
 62
     7
 10
-233.5
 20
 100
 11
-241.5
 21
 100
  0
LINE
  8
0
  6
DASHDOT
 62
     7
 10
-237.5
 20
 104
 11
-237.5
 21
 96
  0
CIRCLE
  8
0
  6
CONTINUOUS
 62
     7
 10
-212.5
 20
 100
 40
 2.5
  0
CIRCLE
  8
0
  6
CONTINUOUS
 62
     7
 10
-212.5
 20
 100
 40
 2
  0
LINE
  8
0
  6
DASHDOT
 62
     7
 10
-208.5
 20
 100
 11
-216.5
 21
 100
  0
LINE
  8
0
  6
DASHDOT
 62
     7
 10
-212.5
 20
 104
 11
-212.5
 21
 96
  0
CIRCLE
  8
0
  6
CONTINUOUS
 62
     7
 10
-187.5
 20
 100
 40
 2.5
  0
CIRCLE
  8
0
  6
CONTINUOUS
 62
     7
 10
-187.5
 20
 100
 40
 2
  0
LINE
  8
0
  6
DASHDOT
 62
     7
 10
-183.5
 20
 100
 11
-191.5
 21
 100
  0
LINE
  8
0
  6
DASHDOT
 62
     7
 10
-187.5
 20
 104
 11
-187.5
 21
 96
  0
CIRCLE
  8
0
  6
CONTINUOUS
 62
     7
 10
-162.5
 20
 100
 40
 2.5
  0
CIRCLE
  8
0
  6
CONTINUOUS
 62
     7
 10
-162.5
 20
 100
 40
 2
  0
LINE
  8
0
  6
DASHDOT
 62
     7
 10
-158.5
 20
 100
 11
-166.5
 21
 100
  0
LINE
  8
0
  6
DASHDOT
 62
     7
 10
-162.5
 20
 104
 11
-162.5
 21
 96
  0
CIRCLE
  8
0
  6
CONTINUOUS
 62
     7
 10
-137.5
 20
 100
 40
 2.5
  0
CIRCLE
  8
0
  6
CONTINUOUS
 62
     7
 10
-137.5
 20
 100
 40
 2
  0
LINE
  8
0
  6
DASHDOT
 62
     7
 10
-133.5
 20
 100
 11
-141.5
 21
 100
  0
LINE
  8
0
  6
DASHDOT
 62
     7
 10
-137.5
 20
 104
 11
-137.5
 21
 96
  0
LINE
  8
0
  6
DOT
 62
     7
 10
-365
 20
-98.999999999999858
 11
-365
 21
-105
  0
LINE
  8
0
  6
DOT
 62
     7
 10
-364.5
 20
-98.999999999999858
 11
-364.5
 21
-105
  0
LINE
  8
0
  6
DASHDOT
 62
     7
 10
-362.5
 20
-93.999999999999858
 11
-362.5
 21
-110
  0
LINE
  8
0
  6
DOT
 62
     7
 10
-360
 20
-98.999999999999858
 11
-360
 21
-105
  0
LINE
  8
0
  6
DOT
 62
     7
 10
-360.5
 20
-98.999999999999858
 11
-360.5
 21
-105
  0
LINE
  8
0
  6
DOT
 62
     7
 10
-340
 20
-98.999999999999858
 11
-340
 21
-105
  0
LINE
  8
0
  6
DOT
 62
     7
 10
-339.5
 20
-98.999999999999858
 11
-339.5
 21
-105
  0
LINE
  8
0
  6
DASHDOT
 62
     7
 10
-337.5
 20
-93.999999999999858
 11
-337.5
 21
-110
  0
LINE
  8
0
  6
DOT
 62
     7
 10
-335
 20
-98.999999999999858
 11
-335
 21
-105
  0
LINE
  8
0
  6
DOT
 62
     7
 10
-335.5
 20
-98.999999999999858
 11
-335.5
 21
-105
  0
LINE
  8
0
  6
DOT
 62
     7
 10
-315
 20
-98.999999999999858
 11
-315
 21
-105
  0
LINE
  8
0
  6
DOT
 62
     7
 10
-314.5
 20
-98.999999999999858
 11
-314.5
 21
-105
  0
LINE
  8
0
  6
DASHDOT
 62
     7
 10
-312.5
 20
-93.999999999999858
 11
-312.5
 21
-110
  0
LINE
  8
0
  6
DOT
 62
     7
 10
-310
 20
-98.999999999999858
 11
-310
 21
-105
  0
LINE
  8
0
  6
DOT
 62
     7
 10
-310.5
 20
-98.999999999999858
 11
-310.5
 21
-105
  0
LINE
  8
0
  6
DOT
 62
     7
 10
-290
 20
-98.999999999999858
 11
-290
 21
-105
  0
LINE
  8
0
  6
DOT
 62
     7
 10
-289.5
 20
-98.999999999999858
 11
-289.5
 21
-105
  0
LINE
  8
0
  6
DASHDOT
 62
     7
 10
-287.5
 20
-93.999999999999858
 11
-287.5
 21
-110
  0
LINE
  8
0
  6
DOT
 62
     7
 10
-285
 20
-98.999999999999858
 11
-285
 21
-105
  0
LINE
  8
0
  6
DOT
 62
     7
 10
-285.5
 20
-98.999999999999858
 11
-285.5
 21
-105
  0
LINE
  8
0
  6
DOT
 62
     7
 10
-265
 20
-98.999999999999858
 11
-265
 21
-105
  0
LINE
  8
0
  6
DOT
 62
     7
 10
-264.5
 20
-98.999999999999858
 11
-264.5
 21
-105
  0
LINE
  8
0
  6
DASHDOT
 62
     7
 10
-262.5
 20
-93.999999999999858
 11
-262.5
 21
-110
  0
LINE
  8
0
  6
DOT
 62
     7
 10
-260
 20
-98.999999999999858
 11
-260
 21
-105
  0
LINE
  8
0
  6
DOT
 62
     7
 10
-260.5
 20
-98.999999999999858
 11
-260.5
 21
-105
  0
LINE
  8
0
  6
DOT
 62
     7
 10
-240
 20
-98.999999999999858
 11
-240
 21
-105
  0
LINE
  8
0
  6
DOT
 62
     7
 10
-239.5
 20
-98.999999999999858
 11
-239.5
 21
-105
  0
LINE
  8
0
  6
DASHDOT
 62
     7
 10
-237.5
 20
-93.999999999999858
 11
-237.5
 21
-110
  0
LINE
  8
0
  6
DOT
 62
     7
 10
-235
 20
-98.999999999999858
 11
-235
 21
-105
  0
LINE
  8
0
  6
DOT
 62
     7
 10
-235.5
 20
-98.999999999999858
 11
-235.5
 21
-105
  0
LINE
  8
0
  6
DOT
 62
     7
 10
-215
 20
-98.999999999999858
 11
-215
 21
-105
  0
LINE
  8
0
  6
DOT
 62
     7
 10
-214.5
 20
-98.999999999999858
 11
-214.5
 21
-105
  0
LINE
  8
0
  6
DASHDOT
 62
     7
 10
-212.5
 20
-93.999999999999858
 11
-212.5
 21
-110
  0
LINE
  8
0
  6
DOT
 62
     7
 10
-210
 20
-98.999999999999858
 11
-210
 21
-105
  0
LINE
  8
0
  6
DOT
 62
     7
 10
-210.5
 20
-98.999999999999858
 11
-210.5
 21
-105
  0
LINE
  8
0
  6
DOT
 62
     7
 10
-190
 20
-98.999999999999858
 11
-190
 21
-105
  0
LINE
  8
0
  6
DOT
 62
     7
 10
-189.5
 20
-98.999999999999858
 11
-189.5
 21
-105
  0
LINE
  8
0
  6
DASHDOT
 62
     7
 10
-187.5
 20
-93.999999999999858
 11
-187.5
 21
-110
  0
LINE
  8
0
  6
DOT
 62
     7
 10
-185
 20
-98.999999999999858
 11
-185
 21
-105
  0
LINE
  8
0
  6
DOT
 62
     7
 10
-185.5
 20
-98.999999999999858
 11
-185.5
 21
-105
  0
LINE
  8
0
  6
DOT
 62
     7
 10
-165
 20
-98.999999999999858
 11
-165
 21
-105
  0
LINE
  8
0
  6
DOT
 62
     7
 10
-164.5
 20
-98.999999999999858
 11
-164.5
 21
-105
  0
LINE
  8
0
  6
DASHDOT
 62
     7
 10
-162.5
 20
-93.999999999999858
 11
-162.5
 21
-110
  0
LINE
  8
0
  6
DOT
 62
     7
 10
-160
 20
-98.999999999999858
 11
-160
 21
-105
  0
LINE
  8
0
  6
DOT
 62
     7
 10
-160.5
 20
-98.999999999999858
 11
-160.5
 21
-105
  0
LINE
  8
0
  6
DOT
 62
     7
 10
-140
 20
-98.999999999999858
 11
-140
 21
-105
  0
LINE
  8
0
  6
DOT
 62
     7
 10
-139.5
 20
-98.999999999999858
 11
-139.5
 21
-105
  0
LINE
  8
0
  6
DASHDOT
 62
     7
 10
-137.5
 20
-93.999999999999858
 11
-137.5
 21
-110
  0
LINE
  8
0
  6
DOT
 62
     7
 10
-135
 20
-98.999999999999858
 11
-135
 21
-105
  0
LINE
  8
0
  6
DOT
 62
     7
 10
-135.5
 20
-98.999999999999858
 11
-135.5
 21
-105
  0
CIRCLE
  8
0
  6
CONTINUOUS
 62
     7
 10
-112.5
 20
 100
 40
 2.5
  0
CIRCLE
  8
0
  6
CONTINUOUS
 62
     7
 10
-112.5
 20
 100
 40
 2
  0
LINE
  8
0
  6
DASHDOT
 62
     7
 10
-108.5
 20
 100
 11
-116.5
 21
 100
  0
LINE
  8
0
  6
DASHDOT
 62
     7
 10
-112.5
 20
 104
 11
-112.5
 21
 96
  0
CIRCLE
  8
0
  6
CONTINUOUS
 62
     7
 10
-87.5
 20
 100
 40
 2.5
  0
CIRCLE
  8
0
  6
CONTINUOUS
 62
     7
 10
-87.5
 20
 100
 40
 2
  0
LINE
  8
0
  6
DASHDOT
 62
     7
 10
-83.5
 20
 100
 11
-91.5
 21
 100
  0
LINE
  8
0
  6
DASHDOT
 62
     7
 10
-87.5
 20
 104
 11
-87.5
 21
 96
  0
CIRCLE
  8
0
  6
CONTINUOUS
 62
     7
 10
-62.5
 20
 100
 40
 2.5
  0
CIRCLE
  8
0
  6
CONTINUOUS
 62
     7
 10
-62.5
 20
 100
 40
 2
  0
LINE
  8
0
  6
DASHDOT
 62
     7
 10
-58.5
 20
 100
 11
-66.5
 21
 100
  0
LINE
  8
0
  6
DASHDOT
 62
     7
 10
-62.5
 20
 104
 11
-62.5
 21
 96
  0
CIRCLE
  8
0
  6
CONTINUOUS
 62
     7
 10
-37.5
 20
 100
 40
 2.5
  0
CIRCLE
  8
0
  6
CONTINUOUS
 62
     7
 10
-37.5
 20
 100
 40
 2
  0
LINE
  8
0
  6
DASHDOT
 62
     7
 10
-33.5
 20
 100
 11
-41.5
 21
 100
  0
LINE
  8
0
  6
DASHDOT
 62
     7
 10
-37.5
 20
 104
 11
-37.5
 21
 96
  0
CIRCLE
  8
0
  6
CONTINUOUS
 62
     7
 10
-12.5
 20
 100
 40
 2.5
  0
CIRCLE
  8
0
  6
CONTINUOUS
 62
     7
 10
-12.5
 20
 100
 40
 2
  0
LINE
  8
0
  6
DASHDOT
 62
     7
 10
-8.5
 20
 100
 11
-16.5
 21
 100
  0
LINE
  8
0
  6
DASHDOT
 62
     7
 10
-12.5
 20
 104
 11
-12.5
 21
 96
  0
CIRCLE
  8
0
  6
CONTINUOUS
 62
     7
 10
 12.5
 20
 100
 40
 2.5
  0
CIRCLE
  8
0
  6
CONTINUOUS
 62
     7
 10
 12.5
 20
 100
 40
 2
  0
LINE
  8
0
  6
DASHDOT
 62
     7
 10
 16.5
 20
 100
 11
 8.5
 21
 100
  0
LINE
  8
0
  6
DASHDOT
 62
     7
 10
 12.5
 20
 104
 11
 12.5
 21
 96
  0
CIRCLE
  8
0
  6
CONTINUOUS
 62
     7
 10
 37.5
 20
 100
 40
 2.5
  0
CIRCLE
  8
0
  6
CONTINUOUS
 62
     7
 10
 37.5
 20
 100
 40
 2
  0
LINE
  8
0
  6
DASHDOT
 62
     7
 10
 41.5
 20
 100
 11
 33.5
 21
 100
  0
LINE
  8
0
  6
DASHDOT
 62
     7
 10
 37.5
 20
 104
 11
 37.5
 21
 96
  0
CIRCLE
  8
0
  6
CONTINUOUS
 62
     7
 10
 62.5
 20
 100
 40
 2.5
  0
CIRCLE
  8
0
  6
CONTINUOUS
 62
     7
 10
 62.5
 20
 100
 40
 2
  0
LINE
  8
0
  6
DASHDOT
 62
     7
 10
 66.5
 20
 100
 11
 58.5
 21
 100
  0
LINE
  8
0
  6
DASHDOT
 62
     7
 10
 62.5
 20
 104
 11
 62.5
 21
 96
  0
CIRCLE
  8
0
  6
CONTINUOUS
 62
     7
 10
 87.5
 20
 100
 40
 2.5
  0
CIRCLE
  8
0
  6
CONTINUOUS
 62
     7
 10
 87.5
 20
 100
 40
 2
  0
LINE
  8
0
  6
DASHDOT
 62
     7
 10
 91.5
 20
 100
 11
 83.5
 21
 100
  0
LINE
  8
0
  6
DASHDOT
 62
     7
 10
 87.5
 20
 104
 11
 87.5
 21
 96
  0
CIRCLE
  8
0
  6
CONTINUOUS
 62
     7
 10
 112.5
 20
 100
 40
 2.5
  0
CIRCLE
  8
0
  6
CONTINUOUS
 62
     7
 10
 112.5
 20
 100
 40
 2
  0
LINE
  8
0
  6
DASHDOT
 62
     7
 10
 116.5
 20
 100
 11
 108.5
 21
 100
  0
LINE
  8
0
  6
DASHDOT
 62
     7
 10
 112.5
 20
 104
 11
 112.5
 21
 96
  0
LINE
  8
0
  6
DOT
 62
     7
 10
-115
 20
-98.999999999999858
 11
-115
 21
-105
  0
LINE
  8
0
  6
DOT
 62
     7
 10
-114.5
 20
-98.999999999999858
 11
-114.5
 21
-105
  0
LINE
  8
0
  6
DASHDOT
 62
     7
 10
-112.5
 20
-93.999999999999858
 11
-112.5
 21
-110
  0
LINE
  8
0
  6
DOT
 62
     7
 10
-110
 20
-98.999999999999858
 11
-110
 21
-105
  0
LINE
  8
0
  6
DOT
 62
     7
 10
-110.5
 20
-98.999999999999858
 11
-110.5
 21
-105
  0
LINE
  8
0
  6
DOT
 62
     7
 10
-90
 20
-98.999999999999858
 11
-90
 21
-105
  0
LINE
  8
0
  6
DOT
 62
     7
 10
-89.5
 20
-98.999999999999858
 11
-89.5
 21
-105
  0
LINE
  8
0
  6
DASHDOT
 62
     7
 10
-87.5
 20
-93.999999999999858
 11
-87.5
 21
-110
  0
LINE
  8
0
  6
DOT
 62
     7
 10
-85
 20
-98.999999999999858
 11
-85
 21
-105
  0
LINE
  8
0
  6
DOT
 62
     7
 10
-85.5
 20
-98.999999999999858
 11
-85.5
 21
-105
  0
LINE
  8
0
  6
DOT
 62
     7
 10
-65
 20
-98.999999999999858
 11
-65
 21
-105
  0
LINE
  8
0
  6
DOT
 62
     7
 10
-64.5
 20
-98.999999999999858
 11
-64.5
 21
-105
  0
LINE
  8
0
  6
DASHDOT
 62
     7
 10
-62.5
 20
-93.999999999999858
 11
-62.5
 21
-110
  0
LINE
  8
0
  6
DOT
 62
     7
 10
-60
 20
-98.999999999999858
 11
-60
 21
-105
  0
LINE
  8
0
  6
DOT
 62
     7
 10
-60.5
 20
-98.999999999999858
 11
-60.5
 21
-105
  0
LINE
  8
0
  6
DOT
 62
     7
 10
-40
 20
-98.999999999999858
 11
-40
 21
-105
  0
LINE
  8
0
  6
DOT
 62
     7
 10
-39.5
 20
-98.999999999999858
 11
-39.5
 21
-105
  0
LINE
  8
0
  6
DASHDOT
 62
     7
 10
-37.5
 20
-93.999999999999858
 11
-37.5
 21
-110
  0
LINE
  8
0
  6
DOT
 62
     7
 10
-35
 20
-98.999999999999858
 11
-35
 21
-105
  0
LINE
  8
0
  6
DOT
 62
     7
 10
-35.5
 20
-98.999999999999858
 11
-35.5
 21
-105
  0
LINE
  8
0
  6
DOT
 62
     7
 10
-15
 20
-98.999999999999858
 11
-15
 21
-105
  0
LINE
  8
0
  6
DOT
 62
     7
 10
-14.5
 20
-98.999999999999858
 11
-14.5
 21
-105
  0
LINE
  8
0
  6
DASHDOT
 62
     7
 10
-12.5
 20
-93.999999999999858
 11
-12.5
 21
-110
  0
LINE
  8
0
  6
DOT
 62
     7
 10
-10
 20
-98.999999999999858
 11
-10
 21
-105
  0
LINE
  8
0
  6
DOT
 62
     7
 10
-10.5
 20
-98.999999999999858
 11
-10.5
 21
-105
  0
LINE
  8
0
  6
DOT
 62
     7
 10
 10
 20
-98.999999999999858
 11
 10
 21
-105
  0
LINE
  8
0
  6
DOT
 62
     7
 10
 10.5
 20
-98.999999999999858
 11
 10.5
 21
-105
  0
LINE
  8
0
  6
DASHDOT
 62
     7
 10
 12.5
 20
-93.999999999999858
 11
 12.5
 21
-110
  0
LINE
  8
0
  6
DOT
 62
     7
 10
 15
 20
-98.999999999999858
 11
 15
 21
-105
  0
LINE
  8
0
  6
DOT
 62
     7
 10
 14.5
 20
-98.999999999999858
 11
 14.5
 21
-105
  0
LINE
  8
0
  6
DOT
 62
     7
 10
 35
 20
-98.999999999999858
 11
 35
 21
-105
  0
LINE
  8
0
  6
DOT
 62
     7
 10
 35.5
 20
-98.999999999999858
 11
 35.5
 21
-105
  0
LINE
  8
0
  6
DASHDOT
 62
     7
 10
 37.5
 20
-93.999999999999858
 11
 37.5
 21
-110
  0
LINE
  8
0
  6
DOT
 62
     7
 10
 40
 20
-98.999999999999858
 11
 40
 21
-105
  0
LINE
  8
0
  6
DOT
 62
     7
 10
 39.5
 20
-98.999999999999858
 11
 39.5
 21
-105
  0
LINE
  8
0
  6
DOT
 62
     7
 10
 60
 20
-98.999999999999858
 11
 60
 21
-105
  0
LINE
  8
0
  6
DOT
 62
     7
 10
 60.5
 20
-98.999999999999858
 11
 60.5
 21
-105
  0
LINE
  8
0
  6
DASHDOT
 62
     7
 10
 62.5
 20
-93.999999999999858
 11
 62.5
 21
-110
  0
LINE
  8
0
  6
DOT
 62
     7
 10
 65
 20
-98.999999999999858
 11
 65
 21
-105
  0
LINE
  8
0
  6
DOT
 62
     7
 10
 64.5
 20
-98.999999999999858
 11
 64.5
 21
-105
  0
LINE
  8
0
  6
DOT
 62
     7
 10
 85
 20
-98.999999999999858
 11
 85
 21
-105
  0
LINE
  8
0
  6
DOT
 62
     7
 10
 85.5
 20
-98.999999999999858
 11
 85.5
 21
-105
  0
LINE
  8
0
  6
DASHDOT
 62
     7
 10
 87.5
 20
-93.999999999999858
 11
 87.5
 21
-110
  0
LINE
  8
0
  6
DOT
 62
     7
 10
 90
 20
-98.999999999999858
 11
 90
 21
-105
  0
LINE
  8
0
  6
DOT
 62
     7
 10
 89.5
 20
-98.999999999999858
 11
 89.5
 21
-105
  0
LINE
  8
0
  6
DOT
 62
     7
 10
 110
 20
-98.999999999999858
 11
 110
 21
-105
  0
LINE
  8
0
  6
DOT
 62
     7
 10
 110.5
 20
-98.999999999999858
 11
 110.5
 21
-105
  0
LINE
  8
0
  6
DASHDOT
 62
     7
 10
 112.5
 20
-93.999999999999858
 11
 112.5
 21
-110
  0
LINE
  8
0
  6
DOT
 62
     7
 10
 115
 20
-98.999999999999858
 11
 115
 21
-105
  0
LINE
  8
0
  6
DOT
 62
     7
 10
 114.5
 20
-98.999999999999858
 11
 114.5
 21
-105
  0
CIRCLE
  8
0
  6
CONTINUOUS
 62
     7
 10
 137.5
 20
 100
 40
 2.5
  0
CIRCLE
  8
0
  6
CONTINUOUS
 62
     7
 10
 137.5
 20
 100
 40
 2
  0
LINE
  8
0
  6
DASHDOT
 62
     7
 10
 141.5
 20
 100
 11
 133.5
 21
 100
  0
LINE
  8
0
  6
DASHDOT
 62
     7
 10
 137.5
 20
 104
 11
 137.5
 21
 96
  0
CIRCLE
  8
0
  6
CONTINUOUS
 62
     7
 10
 162.5
 20
 100
 40
 2.5
  0
CIRCLE
  8
0
  6
CONTINUOUS
 62
     7
 10
 162.5
 20
 100
 40
 2
  0
LINE
  8
0
  6
DASHDOT
 62
     7
 10
 166.5
 20
 100
 11
 158.5
 21
 100
  0
LINE
  8
0
  6
DASHDOT
 62
     7
 10
 162.5
 20
 104
 11
 162.5
 21
 96
  0
CIRCLE
  8
0
  6
CONTINUOUS
 62
     7
 10
 187.5
 20
 100
 40
 2.5
  0
CIRCLE
  8
0
  6
CONTINUOUS
 62
     7
 10
 187.5
 20
 100
 40
 2
  0
LINE
  8
0
  6
DASHDOT
 62
     7
 10
 191.5
 20
 100
 11
 183.5
 21
 100
  0
LINE
  8
0
  6
DASHDOT
 62
     7
 10
 187.5
 20
 104
 11
 187.5
 21
 96
  0
CIRCLE
  8
0
  6
CONTINUOUS
 62
     7
 10
 212.5
 20
 100
 40
 2.5
  0
CIRCLE
  8
0
  6
CONTINUOUS
 62
     7
 10
 212.5
 20
 100
 40
 2
  0
LINE
  8
0
  6
DASHDOT
 62
     7
 10
 216.5
 20
 100
 11
 208.5
 21
 100
  0
LINE
  8
0
  6
DASHDOT
 62
     7
 10
 212.5
 20
 104
 11
 212.5
 21
 96
  0
CIRCLE
  8
0
  6
CONTINUOUS
 62
     7
 10
 237.5
 20
 100
 40
 2.5
  0
CIRCLE
  8
0
  6
CONTINUOUS
 62
     7
 10
 237.5
 20
 100
 40
 2
  0
LINE
  8
0
  6
DASHDOT
 62
     7
 10
 241.5
 20
 100
 11
 233.5
 21
 100
  0
LINE
  8
0
  6
DASHDOT
 62
     7
 10
 237.5
 20
 104
 11
 237.5
 21
 96
  0
CIRCLE
  8
0
  6
CONTINUOUS
 62
     7
 10
 262.5
 20
 100
 40
 2.5
  0
CIRCLE
  8
0
  6
CONTINUOUS
 62
     7
 10
 262.5
 20
 100
 40
 2
  0
LINE
  8
0
  6
DASHDOT
 62
     7
 10
 266.5
 20
 100
 11
 258.5
 21
 100
  0
LINE
  8
0
  6
DASHDOT
 62
     7
 10
 262.5
 20
 104
 11
 262.5
 21
 96
  0
CIRCLE
  8
0
  6
CONTINUOUS
 62
     7
 10
 287.5
 20
 100
 40
 2.5
  0
CIRCLE
  8
0
  6
CONTINUOUS
 62
     7
 10
 287.5
 20
 100
 40
 2
  0
LINE
  8
0
  6
DASHDOT
 62
     7
 10
 291.5
 20
 100
 11
 283.5
 21
 100
  0
LINE
  8
0
  6
DASHDOT
 62
     7
 10
 287.5
 20
 104
 11
 287.5
 21
 96
  0
CIRCLE
  8
0
  6
CONTINUOUS
 62
     7
 10
 312.5
 20
 100
 40
 2.5
  0
CIRCLE
  8
0
  6
CONTINUOUS
 62
     7
 10
 312.5
 20
 100
 40
 2
  0
LINE
  8
0
  6
DASHDOT
 62
     7
 10
 316.5
 20
 100
 11
 308.5
 21
 100
  0
LINE
  8
0
  6
DASHDOT
 62
     7
 10
 312.5
 20
 104
 11
 312.5
 21
 96
  0
CIRCLE
  8
0
  6
CONTINUOUS
 62
     7
 10
 337.5
 20
 100
 40
 2.5
  0
CIRCLE
  8
0
  6
CONTINUOUS
 62
     7
 10
 337.5
 20
 100
 40
 2
  0
LINE
  8
0
  6
DASHDOT
 62
     7
 10
 341.5
 20
 100
 11
 333.5
 21
 100
  0
LINE
  8
0
  6
DASHDOT
 62
     7
 10
 337.5
 20
 104
 11
 337.5
 21
 96
  0
CIRCLE
  8
0
  6
CONTINUOUS
 62
     7
 10
 362.5
 20
 100
 40
 2.5
  0
CIRCLE
  8
0
  6
CONTINUOUS
 62
     7
 10
 362.5
 20
 100
 40
 2
  0
LINE
  8
0
  6
DASHDOT
 62
     7
 10
 366.5
 20
 100
 11
 358.5
 21
 100
  0
LINE
  8
0
  6
DASHDOT
 62
     7
 10
 362.5
 20
 104
 11
 362.5
 21
 96
  0
LINE
  8
0
  6
DOT
 62
     7
 10
 135
 20
-98.999999999999858
 11
 135
 21
-105
  0
LINE
  8
0
  6
DOT
 62
     7
 10
 135.5
 20
-98.999999999999858
 11
 135.5
 21
-105
  0
LINE
  8
0
  6
DASHDOT
 62
     7
 10
 137.5
 20
-93.999999999999858
 11
 137.5
 21
-110
  0
LINE
  8
0
  6
DOT
 62
     7
 10
 140
 20
-98.999999999999858
 11
 140
 21
-105
  0
LINE
  8
0
  6
DOT
 62
     7
 10
 139.5
 20
-98.999999999999858
 11
 139.5
 21
-105
  0
LINE
  8
0
  6
DOT
 62
     7
 10
 160
 20
-98.999999999999858
 11
 160
 21
-105
  0
LINE
  8
0
  6
DOT
 62
     7
 10
 160.5
 20
-98.999999999999858
 11
 160.5
 21
-105
  0
LINE
  8
0
  6
DASHDOT
 62
     7
 10
 162.5
 20
-93.999999999999858
 11
 162.5
 21
-110
  0
LINE
  8
0
  6
DOT
 62
     7
 10
 165
 20
-98.999999999999858
 11
 165
 21
-105
  0
LINE
  8
0
  6
DOT
 62
     7
 10
 164.5
 20
-98.999999999999858
 11
 164.5
 21
-105
  0
LINE
  8
0
  6
DOT
 62
     7
 10
 185
 20
-98.999999999999858
 11
 185
 21
-105
  0
LINE
  8
0
  6
DOT
 62
     7
 10
 185.5
 20
-98.999999999999858
 11
 185.5
 21
-105
  0
LINE
  8
0
  6
DASHDOT
 62
     7
 10
 187.5
 20
-93.999999999999858
 11
 187.5
 21
-110
  0
LINE
  8
0
  6
DOT
 62
     7
 10
 190
 20
-98.999999999999858
 11
 190
 21
-105
  0
LINE
  8
0
  6
DOT
 62
     7
 10
 189.5
 20
-98.999999999999858
 11
 189.5
 21
-105
  0
LINE
  8
0
  6
DOT
 62
     7
 10
 210
 20
-98.999999999999858
 11
 210
 21
-105
  0
LINE
  8
0
  6
DOT
 62
     7
 10
 210.5
 20
-98.999999999999858
 11
 210.5
 21
-105
  0
LINE
  8
0
  6
DASHDOT
 62
     7
 10
 212.5
 20
-93.999999999999858
 11
 212.5
 21
-110
  0
LINE
  8
0
  6
DOT
 62
     7
 10
 215
 20
-98.999999999999858
 11
 215
 21
-105
  0
LINE
  8
0
  6
DOT
 62
     7
 10
 214.5
 20
-98.999999999999858
 11
 214.5
 21
-105
  0
LINE
  8
0
  6
DOT
 62
     7
 10
 235
 20
-98.999999999999858
 11
 235
 21
-105
  0
LINE
  8
0
  6
DOT
 62
     7
 10
 235.5
 20
-98.999999999999858
 11
 235.5
 21
-105
  0
LINE
  8
0
  6
DASHDOT
 62
     7
 10
 237.5
 20
-93.999999999999858
 11
 237.5
 21
-110
  0
LINE
  8
0
  6
DOT
 62
     7
 10
 240
 20
-98.999999999999858
 11
 240
 21
-105
  0
LINE
  8
0
  6
DOT
 62
     7
 10
 239.5
 20
-98.999999999999858
 11
 239.5
 21
-105
  0
LINE
  8
0
  6
DOT
 62
     7
 10
 260
 20
-98.999999999999858
 11
 260
 21
-105
  0
LINE
  8
0
  6
DOT
 62
     7
 10
 260.5
 20
-98.999999999999858
 11
 260.5
 21
-105
  0
LINE
  8
0
  6
DASHDOT
 62
     7
 10
 262.5
 20
-93.999999999999858
 11
 262.5
 21
-110
  0
LINE
  8
0
  6
DOT
 62
     7
 10
 265
 20
-98.999999999999858
 11
 265
 21
-105
  0
LINE
  8
0
  6
DOT
 62
     7
 10
 264.5
 20
-98.999999999999858
 11
 264.5
 21
-105
  0
LINE
  8
0
  6
DOT
 62
     7
 10
 285
 20
-98.999999999999858
 11
 285
 21
-105
  0
LINE
  8
0
  6
DOT
 62
     7
 10
 285.5
 20
-98.999999999999858
 11
 285.5
 21
-105
  0
LINE
  8
0
  6
DASHDOT
 62
     7
 10
 287.5
 20
-93.999999999999858
 11
 287.5
 21
-110
  0
LINE
  8
0
  6
DOT
 62
     7
 10
 290
 20
-98.999999999999858
 11
 290
 21
-105
  0
LINE
  8
0
  6
DOT
 62
     7
 10
 289.5
 20
-98.999999999999858
 11
 289.5
 21
-105
  0
LINE
  8
0
  6
DOT
 62
     7
 10
 310
 20
-98.999999999999858
 11
 310
 21
-105
  0
LINE
  8
0
  6
DOT
 62
     7
 10
 310.5
 20
-98.999999999999858
 11
 310.5
 21
-105
  0
LINE
  8
0
  6
DASHDOT
 62
     7
 10
 312.5
 20
-93.999999999999858
 11
 312.5
 21
-110
  0
LINE
  8
0
  6
DOT
 62
     7
 10
 315
 20
-98.999999999999858
 11
 315
 21
-105
  0
LINE
  8
0
  6
DOT
 62
     7
 10
 314.5
 20
-98.999999999999858
 11
 314.5
 21
-105
  0
LINE
  8
0
  6
DOT
 62
     7
 10
 335
 20
-98.999999999999858
 11
 335
 21
-105
  0
LINE
  8
0
  6
DOT
 62
     7
 10
 335.5
 20
-98.999999999999858
 11
 335.5
 21
-105
  0
LINE
  8
0
  6
DASHDOT
 62
     7
 10
 337.5
 20
-93.999999999999858
 11
 337.5
 21
-110
  0
LINE
  8
0
  6
DOT
 62
     7
 10
 340
 20
-98.999999999999858
 11
 340
 21
-105
  0
LINE
  8
0
  6
DOT
 62
     7
 10
 339.5
 20
-98.999999999999858
 11
 339.5
 21
-105
  0
LINE
  8
0
  6
DOT
 62
     7
 10
 360
 20
-98.999999999999858
 11
 360
 21
-105
  0
LINE
  8
0
  6
DOT
 62
     7
 10
 360.5
 20
-98.999999999999858
 11
 360.5
 21
-105
  0
LINE
  8
0
  6
DASHDOT
 62
     7
 10
 362.5
 20
-93.999999999999858
 11
 362.5
 21
-110
  0
LINE
  8
0
  6
DOT
 62
     7
 10
 365
 20
-98.999999999999858
 11
 365
 21
-105
  0
LINE
  8
0
  6
DOT
 62
     7
 10
 364.5
 20
-98.999999999999858
 11
 364.5
 21
-105
  0
CIRCLE
  8
0
  6
CONTINUOUS
 62
     7
 10
 387.5
 20
 100
 40
 2.5
  0
CIRCLE
  8
0
  6
CONTINUOUS
 62
     7
 10
 387.5
 20
 100
 40
 2
  0
LINE
  8
0
  6
DASHDOT
 62
     7
 10
 391.5
 20
 100
 11
 383.5
 21
 100
  0
LINE
  8
0
  6
DASHDOT
 62
     7
 10
 387.5
 20
 104
 11
 387.5
 21
 96
  0
CIRCLE
  8
0
  6
CONTINUOUS
 62
     7
 10
 412.5
 20
 100
 40
 2.5
  0
CIRCLE
  8
0
  6
CONTINUOUS
 62
     7
 10
 412.5
 20
 100
 40
 2
  0
LINE
  8
0
  6
DASHDOT
 62
     7
 10
 416.5
 20
 100
 11
 408.5
 21
 100
  0
LINE
  8
0
  6
DASHDOT
 62
     7
 10
 412.5
 20
 104
 11
 412.5
 21
 96
  0
CIRCLE
  8
0
  6
CONTINUOUS
 62
     7
 10
 437.5
 20
 100
 40
 2.5
  0
CIRCLE
  8
0
  6
CONTINUOUS
 62
     7
 10
 437.5
 20
 100
 40
 2
  0
LINE
  8
0
  6
DASHDOT
 62
     7
 10
 441.5
 20
 100
 11
 433.5
 21
 100
  0
LINE
  8
0
  6
DASHDOT
 62
     7
 10
 437.5
 20
 104
 11
 437.5
 21
 96
  0
CIRCLE
  8
0
  6
CONTINUOUS
 62
     7
 10
 462.5
 20
 100
 40
 2.5
  0
CIRCLE
  8
0
  6
CONTINUOUS
 62
     7
 10
 462.5
 20
 100
 40
 2
  0
LINE
  8
0
  6
DASHDOT
 62
     7
 10
 466.5
 20
 100
 11
 458.5
 21
 100
  0
LINE
  8
0
  6
DASHDOT
 62
     7
 10
 462.5
 20
 104
 11
 462.5
 21
 96
  0
CIRCLE
  8
0
  6
CONTINUOUS
 62
     7
 10
 487.5
 20
 100
 40
 2.5
  0
CIRCLE
  8
0
  6
CONTINUOUS
 62
     7
 10
 487.5
 20
 100
 40
 2
  0
LINE
  8
0
  6
DASHDOT
 62
     7
 10
 491.5
 20
 100
 11
 483.5
 21
 100
  0
LINE
  8
0
  6
DASHDOT
 62
     7
 10
 487.5
 20
 104
 11
 487.5
 21
 96
  0
CIRCLE
  8
0
  6
CONTINUOUS
 62
     7
 10
 512.5
 20
 100
 40
 2.5
  0
CIRCLE
  8
0
  6
CONTINUOUS
 62
     7
 10
 512.5
 20
 100
 40
 2
  0
LINE
  8
0
  6
DASHDOT
 62
     7
 10
 516.5
 20
 100
 11
 508.5
 21
 100
  0
LINE
  8
0
  6
DASHDOT
 62
     7
 10
 512.5
 20
 104
 11
 512.5
 21
 96
  0
CIRCLE
  8
0
  6
CONTINUOUS
 62
     7
 10
 537.5
 20
 100
 40
 2.5
  0
CIRCLE
  8
0
  6
CONTINUOUS
 62
     7
 10
 537.5
 20
 100
 40
 2
  0
LINE
  8
0
  6
DASHDOT
 62
     7
 10
 541.5
 20
 100
 11
 533.5
 21
 100
  0
LINE
  8
0
  6
DASHDOT
 62
     7
 10
 537.5
 20
 104
 11
 537.5
 21
 96
  0
CIRCLE
  8
0
  6
CONTINUOUS
 62
     7
 10
 562.5
 20
 100
 40
 2.5
  0
CIRCLE
  8
0
  6
CONTINUOUS
 62
     7
 10
 562.5
 20
 100
 40
 2
  0
LINE
  8
0
  6
DASHDOT
 62
     7
 10
 566.5
 20
 100
 11
 558.5
 21
 100
  0
LINE
  8
0
  6
DASHDOT
 62
     7
 10
 562.5
 20
 104
 11
 562.5
 21
 96
  0
CIRCLE
  8
0
  6
CONTINUOUS
 62
     7
 10
 587.5
 20
 100
 40
 2.5
  0
CIRCLE
  8
0
  6
CONTINUOUS
 62
     7
 10
 587.5
 20
 100
 40
 2
  0
LINE
  8
0
  6
DASHDOT
 62
     7
 10
 591.5
 20
 100
 11
 583.5
 21
 100
  0
LINE
  8
0
  6
DASHDOT
 62
     7
 10
 587.5
 20
 104
 11
 587.5
 21
 96
  0
CIRCLE
  8
0
  6
CONTINUOUS
 62
     7
 10
 612.5
 20
 100
 40
 2.5
  0
CIRCLE
  8
0
  6
CONTINUOUS
 62
     7
 10
 612.5
 20
 100
 40
 2
  0
LINE
  8
0
  6
DASHDOT
 62
     7
 10
 616.5
 20
 100
 11
 608.5
 21
 100
  0
LINE
  8
0
  6
DASHDOT
 62
     7
 10
 612.5
 20
 104
 11
 612.5
 21
 96
  0
LINE
  8
0
  6
DOT
 62
     7
 10
 385
 20
-98.999999999999858
 11
 385
 21
-105
  0
LINE
  8
0
  6
DOT
 62
     7
 10
 385.5
 20
-98.999999999999858
 11
 385.5
 21
-105
  0
LINE
  8
0
  6
DASHDOT
 62
     7
 10
 387.5
 20
-93.999999999999858
 11
 387.5
 21
-110
  0
LINE
  8
0
  6
DOT
 62
     7
 10
 390
 20
-98.999999999999858
 11
 390
 21
-105
  0
LINE
  8
0
  6
DOT
 62
     7
 10
 389.5
 20
-98.999999999999858
 11
 389.5
 21
-105
  0
LINE
  8
0
  6
DOT
 62
     7
 10
 410
 20
-98.999999999999858
 11
 410
 21
-105
  0
LINE
  8
0
  6
DOT
 62
     7
 10
 410.5
 20
-98.999999999999858
 11
 410.5
 21
-105
  0
LINE
  8
0
  6
DASHDOT
 62
     7
 10
 412.5
 20
-93.999999999999858
 11
 412.5
 21
-110
  0
LINE
  8
0
  6
DOT
 62
     7
 10
 415
 20
-98.999999999999858
 11
 415
 21
-105
  0
LINE
  8
0
  6
DOT
 62
     7
 10
 414.5
 20
-98.999999999999858
 11
 414.5
 21
-105
  0
LINE
  8
0
  6
DOT
 62
     7
 10
 435
 20
-98.999999999999858
 11
 435
 21
-105
  0
LINE
  8
0
  6
DOT
 62
     7
 10
 435.5
 20
-98.999999999999858
 11
 435.5
 21
-105
  0
LINE
  8
0
  6
DASHDOT
 62
     7
 10
 437.5
 20
-93.999999999999858
 11
 437.5
 21
-110
  0
LINE
  8
0
  6
DOT
 62
     7
 10
 440
 20
-98.999999999999858
 11
 440
 21
-105
  0
LINE
  8
0
  6
DOT
 62
     7
 10
 439.5
 20
-98.999999999999858
 11
 439.5
 21
-105
  0
LINE
  8
0
  6
DOT
 62
     7
 10
 460
 20
-98.999999999999858
 11
 460
 21
-105
  0
LINE
  8
0
  6
DOT
 62
     7
 10
 460.5
 20
-98.999999999999858
 11
 460.5
 21
-105
  0
LINE
  8
0
  6
DASHDOT
 62
     7
 10
 462.5
 20
-93.999999999999858
 11
 462.5
 21
-110
  0
LINE
  8
0
  6
DOT
 62
     7
 10
 465
 20
-98.999999999999858
 11
 465
 21
-105
  0
LINE
  8
0
  6
DOT
 62
     7
 10
 464.5
 20
-98.999999999999858
 11
 464.5
 21
-105
  0
LINE
  8
0
  6
DOT
 62
     7
 10
 485
 20
-98.999999999999858
 11
 485
 21
-105
  0
LINE
  8
0
  6
DOT
 62
     7
 10
 485.5
 20
-98.999999999999858
 11
 485.5
 21
-105
  0
LINE
  8
0
  6
DASHDOT
 62
     7
 10
 487.5
 20
-93.999999999999858
 11
 487.5
 21
-110
  0
LINE
  8
0
  6
DOT
 62
     7
 10
 490
 20
-98.999999999999858
 11
 490
 21
-105
  0
LINE
  8
0
  6
DOT
 62
     7
 10
 489.5
 20
-98.999999999999858
 11
 489.5
 21
-105
  0
LINE
  8
0
  6
DOT
 62
     7
 10
 510
 20
-98.999999999999858
 11
 510
 21
-105
  0
LINE
  8
0
  6
DOT
 62
     7
 10
 510.5
 20
-98.999999999999858
 11
 510.5
 21
-105
  0
LINE
  8
0
  6
DASHDOT
 62
     7
 10
 512.5
 20
-93.999999999999858
 11
 512.5
 21
-110
  0
LINE
  8
0
  6
DOT
 62
     7
 10
 515
 20
-98.999999999999858
 11
 515
 21
-105
  0
LINE
  8
0
  6
DOT
 62
     7
 10
 514.5
 20
-98.999999999999858
 11
 514.5
 21
-105
  0
LINE
  8
0
  6
DOT
 62
     7
 10
 535
 20
-98.999999999999858
 11
 535
 21
-105
  0
LINE
  8
0
  6
DOT
 62
     7
 10
 535.5
 20
-98.999999999999858
 11
 535.5
 21
-105
  0
LINE
  8
0
  6
DASHDOT
 62
     7
 10
 537.5
 20
-93.999999999999858
 11
 537.5
 21
-110
  0
LINE
  8
0
  6
DOT
 62
     7
 10
 540
 20
-98.999999999999858
 11
 540
 21
-105
  0
LINE
  8
0
  6
DOT
 62
     7
 10
 539.5
 20
-98.999999999999858
 11
 539.5
 21
-105
  0
LINE
  8
0
  6
DOT
 62
     7
 10
 560
 20
-98.999999999999858
 11
 560
 21
-105
  0
LINE
  8
0
  6
DOT
 62
     7
 10
 560.5
 20
-98.999999999999858
 11
 560.5
 21
-105
  0
LINE
  8
0
  6
DASHDOT
 62
     7
 10
 562.5
 20
-93.999999999999858
 11
 562.5
 21
-110
  0
LINE
  8
0
  6
DOT
 62
     7
 10
 565
 20
-98.999999999999858
 11
 565
 21
-105
  0
LINE
  8
0
  6
DOT
 62
     7
 10
 564.5
 20
-98.999999999999858
 11
 564.5
 21
-105
  0
LINE
  8
0
  6
DOT
 62
     7
 10
 585
 20
-98.999999999999858
 11
 585
 21
-105
  0
LINE
  8
0
  6
DOT
 62
     7
 10
 585.5
 20
-98.999999999999858
 11
 585.5
 21
-105
  0
LINE
  8
0
  6
DASHDOT
 62
     7
 10
 587.5
 20
-93.999999999999858
 11
 587.5
 21
-110
  0
LINE
  8
0
  6
DOT
 62
     7
 10
 590
 20
-98.999999999999858
 11
 590
 21
-105
  0
LINE
  8
0
  6
DOT
 62
     7
 10
 589.5
 20
-98.999999999999858
 11
 589.5
 21
-105
  0
LINE
  8
0
  6
DOT
 62
     7
 10
 610
 20
-98.999999999999858
 11
 610
 21
-105
  0
LINE
  8
0
  6
DOT
 62
     7
 10
 610.5
 20
-98.999999999999858
 11
 610.5
 21
-105
  0
LINE
  8
0
  6
DASHDOT
 62
     7
 10
 612.5
 20
-93.999999999999858
 11
 612.5
 21
-110
  0
LINE
  8
0
  6
DOT
 62
     7
 10
 615
 20
-98.999999999999858
 11
 615
 21
-105
  0
LINE
  8
0
  6
DOT
 62
     7
 10
 614.5
 20
-98.999999999999858
 11
 614.5
 21
-105
  0
ENDSEC
  0
EOF
