  0
SECTION
  2
HEADER
  9
$INSBASE
 10
0.0
20
0.0
  9
$REGENMODE
 70
     1
  9
$DRAGMODE
 70
     1
  9
$DIMTAD
 70
     1
  9
$EXTMIN
 10
-210.000000
 20
-148.500000
 30
 0.0
  9
$EXTMAX
 10
210.000000
 20
148.500000
 30
 0.0
  9
$LUPREC
 70
    3
  9
$AUPREC
 70
    3
  9
$LTSCALE
 40
26.250000
  0
ENDSEC
  0
SECTION
  2
TABLES
  0
TABLE
  2
LTYPE
 70
     6
  0
LTYPE
  2
CONTINUOUS
 70
    64
  3
SOLID
 72
    65
 73
     0
 40
0.0
  0
LTYPE
  2
DASHED2
 70
    64
  3
_ _ _ _ _ _ _ _ _ _ _ _ _ _ _ _ _ _ _ _ _ _ 
 72
    65
 73
     2
 40
0.5
 49
0.25
 49
-0.25
  0
LTYPE
  2
DASHED
 70
    64
  3
__ __ __ __ __ __ __ __ __ __ __ __ __ __ __
 72
    65
 73
     2
 40
0.75
 49
0.5
 49
-0.25
  0
LTYPE
  2
DASHEDX2
 70
    64
  3
____  ____  ____  ____  ____  ____  ____  __
 72
    65
 73
     2
 40
1.5
 49
1.0
 49
-0.5
  0
LTYPE
  2
DOT
 70
    64
  3
............................................
 72
    65
 73
     2
 40
0.25
 49
0
 49
-0.25
  0
LTYPE
  2
DASHDOT
 70
    64
  3
__ . __ . __ . __ . __ . __ . __ . __ . __ .
 72
    65
 73
     4
 40
1.0
 49
0.5
 49
-0.25
 49
0.0
 49
-0.25
  0
LTYPE
  2
CENTER
 70
    64
  3
____ _ ____ _ ____ _ ____ _ ____ _ ____ _ __
 72
    65
 73
     4
 40
2.0
 49
1.25
 49
-0.25
 49
0.25
 49
-0.25
  0
LTYPE
  2
DIVIDE
 70
    64
  3
__ . . __ . . __ . . __ . . __ . . __ . . __
 72
    65
 73
     6
 40
1.25
 49
0.5
 49
-0.25
 49
0.0
 49
-0.25
 49
0.0
 49
-0.25
  0
LTYPE
  2
PHANTOM2
 70
    64
  3
___ _ _ ___ _ _ ___ _ _ ___ _ _ ___ _ _ ___ 
 72
    65
 73
     6
 40
1.25
 49
0.625
 49
-0.125
 49
0.125
 49
-0.125
 49
0.125
 49
-0.125
  0
LTYPE
  2
DOTX2
 70
    64
  3
. . . . . . . . . . . . . . . . . . . . . . 
 72
    65
 73
     2
 40
0.5
 49
0
 49
-0.5
  0
ENDTAB
  0
TABLE
  2
LAYER
 70
   255
  0
LAYER
  2
0
 70
    64
 62
     7
  6
CONTINUOUS
  0
LAYER
  2
1
 70
    64
 62
     7
  6
CONTINUOUS
  0
LAYER
  2
2
 70
    64
 62
     7
  6
CONTINUOUS
  0
LAYER
  2
3
 70
    64
 62
     7
  6
CONTINUOUS
  0
LAYER
  2
4
 70
    64
 62
     7
  6
CONTINUOUS
  0
LAYER
  2
5
 70
    64
 62
     7
  6
CONTINUOUS
  0
LAYER
  2
6
 70
    64
 62
     7
  6
CONTINUOUS
  0
LAYER
  2
7
 70
    64
 62
     7
  6
CONTINUOUS
  0
LAYER
  2
8
 70
    64
 62
     7
  6
CONTINUOUS
  0
LAYER
  2
9
 70
    64
 62
     7
  6
CONTINUOUS
  0
LAYER
  2
10
 70
    64
 62
     7
  6
CONTINUOUS
  0
LAYER
  2
11
 70
    64
 62
     7
  6
CONTINUOUS
  0
LAYER
  2
12
 70
    64
 62
     7
  6
CONTINUOUS
  0
LAYER
  2
13
 70
    64
 62
     7
  6
CONTINUOUS
  0
LAYER
  2
14
 70
    64
 62
     7
  6
CONTINUOUS
  0
LAYER
  2
15
 70
    64
 62
     7
  6
CONTINUOUS
  0
LAYER
  2
16
 70
    64
 62
     7
  6
CONTINUOUS
  0
LAYER
  2
17
 70
    64
 62
     7
  6
CONTINUOUS
  0
LAYER
  2
18
 70
    64
 62
     7
  6
CONTINUOUS
  0
LAYER
  2
19
 70
    64
 62
     7
  6
CONTINUOUS
  0
LAYER
  2
20
 70
    64
 62
     7
  6
CONTINUOUS
  0
LAYER
  2
21
 70
    64
 62
     7
  6
CONTINUOUS
  0
LAYER
  2
22
 70
    64
 62
     7
  6
CONTINUOUS
  0
LAYER
  2
23
 70
    64
 62
     7
  6
CONTINUOUS
  0
LAYER
  2
24
 70
    64
 62
     7
  6
CONTINUOUS
  0
LAYER
  2
25
 70
    64
 62
     7
  6
CONTINUOUS
  0
LAYER
  2
26
 70
    64
 62
     7
  6
CONTINUOUS
  0
LAYER
  2
27
 70
    64
 62
     7
  6
CONTINUOUS
  0
LAYER
  2
28
 70
    64
 62
     7
  6
CONTINUOUS
  0
LAYER
  2
29
 70
    64
 62
     7
  6
CONTINUOUS
  0
LAYER
  2
30
 70
    64
 62
     7
  6
CONTINUOUS
  0
LAYER
  2
31
 70
    64
 62
     7
  6
CONTINUOUS
  0
LAYER
  2
32
 70
    64
 62
     7
  6
CONTINUOUS
  0
LAYER
  2
33
 70
    64
 62
     7
  6
CONTINUOUS
  0
LAYER
  2
34
 70
    64
 62
     7
  6
CONTINUOUS
  0
LAYER
  2
35
 70
    64
 62
     7
  6
CONTINUOUS
  0
LAYER
  2
36
 70
    64
 62
     7
  6
CONTINUOUS
  0
LAYER
  2
37
 70
    64
 62
     7
  6
CONTINUOUS
  0
LAYER
  2
38
 70
    64
 62
     7
  6
CONTINUOUS
  0
LAYER
  2
39
 70
    64
 62
     7
  6
CONTINUOUS
  0
LAYER
  2
40
 70
    64
 62
     7
  6
CONTINUOUS
  0
LAYER
  2
41
 70
    64
 62
     7
  6
CONTINUOUS
  0
LAYER
  2
42
 70
    64
 62
     7
  6
CONTINUOUS
  0
LAYER
  2
43
 70
    64
 62
     7
  6
CONTINUOUS
  0
LAYER
  2
44
 70
    64
 62
     7
  6
CONTINUOUS
  0
LAYER
  2
45
 70
    64
 62
     7
  6
CONTINUOUS
  0
LAYER
  2
46
 70
    64
 62
     7
  6
CONTINUOUS
  0
LAYER
  2
47
 70
    64
 62
     7
  6
CONTINUOUS
  0
LAYER
  2
48
 70
    64
 62
     7
  6
CONTINUOUS
  0
LAYER
  2
49
 70
    64
 62
     7
  6
CONTINUOUS
  0
LAYER
  2
50
 70
    64
 62
     7
  6
CONTINUOUS
  0
LAYER
  2
51
 70
    64
 62
     7
  6
CONTINUOUS
  0
LAYER
  2
52
 70
    64
 62
     7
  6
CONTINUOUS
  0
LAYER
  2
53
 70
    64
 62
     7
  6
CONTINUOUS
  0
LAYER
  2
54
 70
    64
 62
     7
  6
CONTINUOUS
  0
LAYER
  2
55
 70
    64
 62
     7
  6
CONTINUOUS
  0
LAYER
  2
56
 70
    64
 62
     7
  6
CONTINUOUS
  0
LAYER
  2
57
 70
    64
 62
     7
  6
CONTINUOUS
  0
LAYER
  2
58
 70
    64
 62
     7
  6
CONTINUOUS
  0
LAYER
  2
59
 70
    64
 62
     7
  6
CONTINUOUS
  0
LAYER
  2
60
 70
    64
 62
     7
  6
CONTINUOUS
  0
LAYER
  2
61
 70
    64
 62
     7
  6
CONTINUOUS
  0
LAYER
  2
62
 70
    64
 62
     7
  6
CONTINUOUS
  0
LAYER
  2
63
 70
    64
 62
     7
  6
CONTINUOUS
  0
LAYER
  2
64
 70
    64
 62
     7
  6
CONTINUOUS
  0
LAYER
  2
65
 70
    64
 62
     7
  6
CONTINUOUS
  0
LAYER
  2
66
 70
    64
 62
     7
  6
CONTINUOUS
  0
LAYER
  2
67
 70
    64
 62
     7
  6
CONTINUOUS
  0
LAYER
  2
68
 70
    64
 62
     7
  6
CONTINUOUS
  0
LAYER
  2
69
 70
    64
 62
     7
  6
CONTINUOUS
  0
LAYER
  2
70
 70
    64
 62
     7
  6
CONTINUOUS
  0
LAYER
  2
71
 70
    64
 62
     7
  6
CONTINUOUS
  0
LAYER
  2
72
 70
    64
 62
     7
  6
CONTINUOUS
  0
LAYER
  2
73
 70
    64
 62
     7
  6
CONTINUOUS
  0
LAYER
  2
74
 70
    64
 62
     7
  6
CONTINUOUS
  0
LAYER
  2
75
 70
    64
 62
     7
  6
CONTINUOUS
  0
LAYER
  2
76
 70
    64
 62
     7
  6
CONTINUOUS
  0
LAYER
  2
77
 70
    64
 62
     7
  6
CONTINUOUS
  0
LAYER
  2
78
 70
    64
 62
     7
  6
CONTINUOUS
  0
LAYER
  2
79
 70
    64
 62
     7
  6
CONTINUOUS
  0
LAYER
  2
80
 70
    64
 62
     7
  6
CONTINUOUS
  0
LAYER
  2
81
 70
    64
 62
     7
  6
CONTINUOUS
  0
LAYER
  2
82
 70
    64
 62
     7
  6
CONTINUOUS
  0
LAYER
  2
83
 70
    64
 62
     7
  6
CONTINUOUS
  0
LAYER
  2
84
 70
    64
 62
     7
  6
CONTINUOUS
  0
LAYER
  2
85
 70
    64
 62
     7
  6
CONTINUOUS
  0
LAYER
  2
86
 70
    64
 62
     7
  6
CONTINUOUS
  0
LAYER
  2
87
 70
    64
 62
     7
  6
CONTINUOUS
  0
LAYER
  2
88
 70
    64
 62
     7
  6
CONTINUOUS
  0
LAYER
  2
89
 70
    64
 62
     7
  6
CONTINUOUS
  0
LAYER
  2
90
 70
    64
 62
     7
  6
CONTINUOUS
  0
LAYER
  2
91
 70
    64
 62
     7
  6
CONTINUOUS
  0
LAYER
  2
92
 70
    64
 62
     7
  6
CONTINUOUS
  0
LAYER
  2
93
 70
    64
 62
     7
  6
CONTINUOUS
  0
LAYER
  2
94
 70
    64
 62
     7
  6
CONTINUOUS
  0
LAYER
  2
95
 70
    64
 62
     7
  6
CONTINUOUS
  0
LAYER
  2
96
 70
    64
 62
     7
  6
CONTINUOUS
  0
LAYER
  2
97
 70
    64
 62
     7
  6
CONTINUOUS
  0
LAYER
  2
98
 70
    64
 62
     7
  6
CONTINUOUS
  0
LAYER
  2
99
 70
    64
 62
     7
  6
CONTINUOUS
  0
LAYER
  2
100
 70
    64
 62
     7
  6
CONTINUOUS
  0
LAYER
  2
101
 70
    64
 62
     7
  6
CONTINUOUS
  0
LAYER
  2
102
 70
    64
 62
     7
  6
CONTINUOUS
  0
LAYER
  2
103
 70
    64
 62
     7
  6
CONTINUOUS
  0
LAYER
  2
104
 70
    64
 62
     7
  6
CONTINUOUS
  0
LAYER
  2
105
 70
    64
 62
     7
  6
CONTINUOUS
  0
LAYER
  2
106
 70
    64
 62
     7
  6
CONTINUOUS
  0
LAYER
  2
107
 70
    64
 62
     7
  6
CONTINUOUS
  0
LAYER
  2
108
 70
    64
 62
     7
  6
CONTINUOUS
  0
LAYER
  2
109
 70
    64
 62
     7
  6
CONTINUOUS
  0
LAYER
  2
110
 70
    64
 62
     7
  6
CONTINUOUS
  0
LAYER
  2
111
 70
    64
 62
     7
  6
CONTINUOUS
  0
LAYER
  2
112
 70
    64
 62
     7
  6
CONTINUOUS
  0
LAYER
  2
113
 70
    64
 62
     7
  6
CONTINUOUS
  0
LAYER
  2
114
 70
    64
 62
     7
  6
CONTINUOUS
  0
LAYER
  2
115
 70
    64
 62
     7
  6
CONTINUOUS
  0
LAYER
  2
116
 70
    64
 62
     7
  6
CONTINUOUS
  0
LAYER
  2
117
 70
    64
 62
     7
  6
CONTINUOUS
  0
LAYER
  2
118
 70
    64
 62
     7
  6
CONTINUOUS
  0
LAYER
  2
119
 70
    64
 62
     7
  6
CONTINUOUS
  0
LAYER
  2
120
 70
    64
 62
     7
  6
CONTINUOUS
  0
LAYER
  2
121
 70
    64
 62
     7
  6
CONTINUOUS
  0
LAYER
  2
122
 70
    64
 62
     7
  6
CONTINUOUS
  0
LAYER
  2
123
 70
    64
 62
     7
  6
CONTINUOUS
  0
LAYER
  2
124
 70
    64
 62
     7
  6
CONTINUOUS
  0
LAYER
  2
125
 70
    64
 62
     7
  6
CONTINUOUS
  0
LAYER
  2
126
 70
    64
 62
     7
  6
CONTINUOUS
  0
LAYER
  2
127
 70
    64
 62
     7
  6
CONTINUOUS
  0
LAYER
  2
128
 70
    64
 62
     7
  6
CONTINUOUS
  0
LAYER
  2
129
 70
    64
 62
     7
  6
CONTINUOUS
  0
LAYER
  2
130
 70
    64
 62
     7
  6
CONTINUOUS
  0
LAYER
  2
131
 70
    64
 62
     7
  6
CONTINUOUS
  0
LAYER
  2
132
 70
    64
 62
     7
  6
CONTINUOUS
  0
LAYER
  2
133
 70
    64
 62
     7
  6
CONTINUOUS
  0
LAYER
  2
134
 70
    64
 62
     7
  6
CONTINUOUS
  0
LAYER
  2
135
 70
    64
 62
     7
  6
CONTINUOUS
  0
LAYER
  2
136
 70
    64
 62
     7
  6
CONTINUOUS
  0
LAYER
  2
137
 70
    64
 62
     7
  6
CONTINUOUS
  0
LAYER
  2
138
 70
    64
 62
     7
  6
CONTINUOUS
  0
LAYER
  2
139
 70
    64
 62
     7
  6
CONTINUOUS
  0
LAYER
  2
140
 70
    64
 62
     7
  6
CONTINUOUS
  0
LAYER
  2
141
 70
    64
 62
     7
  6
CONTINUOUS
  0
LAYER
  2
142
 70
    64
 62
     7
  6
CONTINUOUS
  0
LAYER
  2
143
 70
    64
 62
     7
  6
CONTINUOUS
  0
LAYER
  2
144
 70
    64
 62
     7
  6
CONTINUOUS
  0
LAYER
  2
145
 70
    64
 62
     7
  6
CONTINUOUS
  0
LAYER
  2
146
 70
    64
 62
     7
  6
CONTINUOUS
  0
LAYER
  2
147
 70
    64
 62
     7
  6
CONTINUOUS
  0
LAYER
  2
148
 70
    64
 62
     7
  6
CONTINUOUS
  0
LAYER
  2
149
 70
    64
 62
     7
  6
CONTINUOUS
  0
LAYER
  2
150
 70
    64
 62
     7
  6
CONTINUOUS
  0
LAYER
  2
151
 70
    64
 62
     7
  6
CONTINUOUS
  0
LAYER
  2
152
 70
    64
 62
     7
  6
CONTINUOUS
  0
LAYER
  2
153
 70
    64
 62
     7
  6
CONTINUOUS
  0
LAYER
  2
154
 70
    64
 62
     7
  6
CONTINUOUS
  0
LAYER
  2
155
 70
    64
 62
     7
  6
CONTINUOUS
  0
LAYER
  2
156
 70
    64
 62
     7
  6
CONTINUOUS
  0
LAYER
  2
157
 70
    64
 62
     7
  6
CONTINUOUS
  0
LAYER
  2
158
 70
    64
 62
     7
  6
CONTINUOUS
  0
LAYER
  2
159
 70
    64
 62
     7
  6
CONTINUOUS
  0
LAYER
  2
160
 70
    64
 62
     7
  6
CONTINUOUS
  0
LAYER
  2
161
 70
    64
 62
     7
  6
CONTINUOUS
  0
LAYER
  2
162
 70
    64
 62
     7
  6
CONTINUOUS
  0
LAYER
  2
163
 70
    64
 62
     7
  6
CONTINUOUS
  0
LAYER
  2
164
 70
    64
 62
     7
  6
CONTINUOUS
  0
LAYER
  2
165
 70
    64
 62
     7
  6
CONTINUOUS
  0
LAYER
  2
166
 70
    64
 62
     7
  6
CONTINUOUS
  0
LAYER
  2
167
 70
    64
 62
     7
  6
CONTINUOUS
  0
LAYER
  2
168
 70
    64
 62
     7
  6
CONTINUOUS
  0
LAYER
  2
169
 70
    64
 62
     7
  6
CONTINUOUS
  0
LAYER
  2
170
 70
    64
 62
     7
  6
CONTINUOUS
  0
LAYER
  2
171
 70
    64
 62
     7
  6
CONTINUOUS
  0
LAYER
  2
172
 70
    64
 62
     7
  6
CONTINUOUS
  0
LAYER
  2
173
 70
    64
 62
     7
  6
CONTINUOUS
  0
LAYER
  2
174
 70
    64
 62
     7
  6
CONTINUOUS
  0
LAYER
  2
175
 70
    64
 62
     7
  6
CONTINUOUS
  0
LAYER
  2
176
 70
    64
 62
     7
  6
CONTINUOUS
  0
LAYER
  2
177
 70
    64
 62
     7
  6
CONTINUOUS
  0
LAYER
  2
178
 70
    64
 62
     7
  6
CONTINUOUS
  0
LAYER
  2
179
 70
    64
 62
     7
  6
CONTINUOUS
  0
LAYER
  2
180
 70
    64
 62
     7
  6
CONTINUOUS
  0
LAYER
  2
181
 70
    64
 62
     7
  6
CONTINUOUS
  0
LAYER
  2
182
 70
    64
 62
     7
  6
CONTINUOUS
  0
LAYER
  2
183
 70
    64
 62
     7
  6
CONTINUOUS
  0
LAYER
  2
184
 70
    64
 62
     7
  6
CONTINUOUS
  0
LAYER
  2
185
 70
    64
 62
     7
  6
CONTINUOUS
  0
LAYER
  2
186
 70
    64
 62
     7
  6
CONTINUOUS
  0
LAYER
  2
187
 70
    64
 62
     7
  6
CONTINUOUS
  0
LAYER
  2
188
 70
    64
 62
     7
  6
CONTINUOUS
  0
LAYER
  2
189
 70
    64
 62
     7
  6
CONTINUOUS
  0
LAYER
  2
190
 70
    64
 62
     7
  6
CONTINUOUS
  0
LAYER
  2
191
 70
    64
 62
     7
  6
CONTINUOUS
  0
LAYER
  2
192
 70
    64
 62
     7
  6
CONTINUOUS
  0
LAYER
  2
193
 70
    64
 62
     7
  6
CONTINUOUS
  0
LAYER
  2
194
 70
    64
 62
     7
  6
CONTINUOUS
  0
LAYER
  2
195
 70
    64
 62
     7
  6
CONTINUOUS
  0
LAYER
  2
196
 70
    64
 62
     7
  6
CONTINUOUS
  0
LAYER
  2
197
 70
    64
 62
     7
  6
CONTINUOUS
  0
LAYER
  2
198
 70
    64
 62
     7
  6
CONTINUOUS
  0
LAYER
  2
199
 70
    64
 62
     7
  6
CONTINUOUS
  0
LAYER
  2
200
 70
    64
 62
     7
  6
CONTINUOUS
  0
LAYER
  2
201
 70
    64
 62
     7
  6
CONTINUOUS
  0
LAYER
  2
202
 70
    64
 62
     7
  6
CONTINUOUS
  0
LAYER
  2
203
 70
    64
 62
     7
  6
CONTINUOUS
  0
LAYER
  2
204
 70
    64
 62
     7
  6
CONTINUOUS
  0
LAYER
  2
205
 70
    64
 62
     7
  6
CONTINUOUS
  0
LAYER
  2
206
 70
    64
 62
     7
  6
CONTINUOUS
  0
LAYER
  2
207
 70
    64
 62
     7
  6
CONTINUOUS
  0
LAYER
  2
208
 70
    64
 62
     7
  6
CONTINUOUS
  0
LAYER
  2
209
 70
    64
 62
     7
  6
CONTINUOUS
  0
LAYER
  2
210
 70
    64
 62
     7
  6
CONTINUOUS
  0
LAYER
  2
211
 70
    64
 62
     7
  6
CONTINUOUS
  0
LAYER
  2
212
 70
    64
 62
     7
  6
CONTINUOUS
  0
LAYER
  2
213
 70
    64
 62
     7
  6
CONTINUOUS
  0
LAYER
  2
214
 70
    64
 62
     7
  6
CONTINUOUS
  0
LAYER
  2
215
 70
    64
 62
     7
  6
CONTINUOUS
  0
LAYER
  2
216
 70
    64
 62
     7
  6
CONTINUOUS
  0
LAYER
  2
217
 70
    64
 62
     7
  6
CONTINUOUS
  0
LAYER
  2
218
 70
    64
 62
     7
  6
CONTINUOUS
  0
LAYER
  2
219
 70
    64
 62
     7
  6
CONTINUOUS
  0
LAYER
  2
220
 70
    64
 62
     7
  6
CONTINUOUS
  0
LAYER
  2
221
 70
    64
 62
     7
  6
CONTINUOUS
  0
LAYER
  2
222
 70
    64
 62
     7
  6
CONTINUOUS
  0
LAYER
  2
223
 70
    64
 62
     7
  6
CONTINUOUS
  0
LAYER
  2
224
 70
    64
 62
     7
  6
CONTINUOUS
  0
LAYER
  2
225
 70
    64
 62
     7
  6
CONTINUOUS
  0
LAYER
  2
226
 70
    64
 62
     7
  6
CONTINUOUS
  0
LAYER
  2
227
 70
    64
 62
     7
  6
CONTINUOUS
  0
LAYER
  2
228
 70
    64
 62
     7
  6
CONTINUOUS
  0
LAYER
  2
229
 70
    64
 62
     7
  6
CONTINUOUS
  0
LAYER
  2
230
 70
    64
 62
     7
  6
CONTINUOUS
  0
LAYER
  2
231
 70
    64
 62
     7
  6
CONTINUOUS
  0
LAYER
  2
232
 70
    64
 62
     7
  6
CONTINUOUS
  0
LAYER
  2
233
 70
    64
 62
     7
  6
CONTINUOUS
  0
LAYER
  2
234
 70
    64
 62
     7
  6
CONTINUOUS
  0
LAYER
  2
235
 70
    64
 62
     7
  6
CONTINUOUS
  0
LAYER
  2
236
 70
    64
 62
     7
  6
CONTINUOUS
  0
LAYER
  2
237
 70
    64
 62
     7
  6
CONTINUOUS
  0
LAYER
  2
238
 70
    64
 62
     7
  6
CONTINUOUS
  0
LAYER
  2
239
 70
    64
 62
     7
  6
CONTINUOUS
  0
LAYER
  2
240
 70
    64
 62
     7
  6
CONTINUOUS
  0
LAYER
  2
241
 70
    64
 62
     7
  6
CONTINUOUS
  0
LAYER
  2
242
 70
    64
 62
     7
  6
CONTINUOUS
  0
LAYER
  2
243
 70
    64
 62
     7
  6
CONTINUOUS
  0
LAYER
  2
244
 70
    64
 62
     7
  6
CONTINUOUS
  0
LAYER
  2
245
 70
    64
 62
     7
  6
CONTINUOUS
  0
LAYER
  2
246
 70
    64
 62
     7
  6
CONTINUOUS
  0
LAYER
  2
247
 70
    64
 62
     7
  6
CONTINUOUS
  0
LAYER
  2
248
 70
    64
 62
     7
  6
CONTINUOUS
  0
LAYER
  2
249
 70
    64
 62
     7
  6
CONTINUOUS
  0
LAYER
  2
250
 70
    64
 62
     7
  6
CONTINUOUS
  0
LAYER
  2
251
 70
    64
 62
     7
  6
CONTINUOUS
  0
LAYER
  2
252
 70
    64
 62
     7
  6
CONTINUOUS
  0
LAYER
  2
253
 70
    64
 62
     7
  6
CONTINUOUS
  0
LAYER
  2
254
 70
    64
 62
     7
  6
CONTINUOUS
  0
LAYER
  2
255
 70
    64
 62
     7
  6
CONTINUOUS
  0
ENDTAB
  0
TABLE
  2
STYLE
 70
     2
  0
STYLE
  2
STANDARD
 70
    64
 40
0.0
 41
1.0
 50
0.0
 71
     0
 42
3.000000
  3
TXT
  4
BIGFONT
  0
ENDTAB
  0
ENDSEC
  0
SECTION
  2
ENTITIES
  0
CIRCLE
  8
0
  6
CONTINUOUS
 62
     7
 10
 56.25
 20
 0
 40
 3.2999999999999998
  0
CIRCLE
  8
0
  6
CONTINUOUS
 62
     2
 10
 56.25
 20
 0
 40
 4
  0
LINE
  8
0
  6
CONTINUOUS
 62
     3
 10
 47.75
 20
 4.9074772881118207
 11
 56.25
 21
 9.8149545762236414
  0
LINE
  8
0
  6
CONTINUOUS
 62
     3
 10
 47.75
 20
-4.9074772881118065
 11
 47.75
 21
 4.9074772881118207
  0
LINE
  8
0
  6
CONTINUOUS
 62
     3
 10
 56.25
 20
-9.8149545762236414
 11
 47.75
 21
-4.9074772881118065
  0
LINE
  8
0
  6
CONTINUOUS
 62
     3
 10
 64.75
 20
-4.9074772881118349
 11
 56.25
 21
-9.8149545762236414
  0
LINE
  8
0
  6
CONTINUOUS
 62
     3
 10
 64.75
 20
 4.9074772881118065
 11
 64.75
 21
-4.9074772881118349
  0
LINE
  8
0
  6
CONTINUOUS
 62
     3
 10
 56.250000000000007
 20
 9.8149545762236414
 11
 64.75
 21
 4.9074772881118065
  0
LINE
  8
0
  6
DASHDOT
 62
     7
 10
 56.25
 20
 14.814954576223641
 11
 56.25
 21
-14.814954576223641
  0
LINE
  8
0
  6
DASHDOT
 62
     7
 10
-69.75
 20
 0
 11
 69.75
 21
 0
  0
LINE
  8
0
  6
CONTINUOUS
 62
     2
 10
-44.75
 20
 4
 11
-59
 21
 4
  0
LINE
  8
0
  6
CONTINUOUS
 62
     2
 10
-44.75
 20
-4
 11
-59
 21
-4
  0
LINE
  8
0
  6
CONTINUOUS
 62
     2
 10
-59
 20
 4
 11
-59.75
 21
 3.25
  0
LINE
  8
0
  6
CONTINUOUS
 62
     2
 10
-59
 20
-4
 11
-59.75
 21
-3.25
  0
LINE
  8
0
  6
CONTINUOUS
 62
     2
 10
-59.75
 20
-3.25
 11
-59.75
 21
 3.25
  0
LINE
  8
0
  6
CONTINUOUS
 62
     2
 10
-59
 20
-4
 11
-59
 21
 4
  0
LINE
  8
0
  6
CONTINUOUS
 62
     7
 10
-45.75
 20
 3.25
 11
-59.75
 21
 3.25
  0
LINE
  8
0
  6
CONTINUOUS
 62
     7
 10
-45.75
 20
-3.25
 11
-59.75
 21
-3.25
  0
LINE
  8
0
  6
CONTINUOUS
 62
     2
 10
-45.75
 20
 4
 11
-45.75
 21
-4
  0
LINE
  8
0
  6
CONTINUOUS
 62
     3
 10
-44.75
 20
 9.8149545762236414
 11
-44.75
 21
-9.8149545762236414
  0
LINE
  8
0
  6
CONTINUOUS
 62
     7
 10
-45.75
 20
 3.25
 11
-44.75
 21
 4
  0
LINE
  8
0
  6
CONTINUOUS
 62
     7
 10
-45.75
 20
-3.25
 11
-44.75
 21
-4
  0
LINE
  8
0
  6
CONTINUOUS
 62
     3
 10
-44.75
 20
 9.8149545762236414
 11
 1.2500000000000142
 21
 9.8149545762236414
  0
LINE
  8
0
  6
CONTINUOUS
 62
     3
 10
-44.75
 20
-9.8149545762236414
 11
 1.2500000000000142
 21
-9.8149545762236414
  0
LINE
  8
0
  6
CONTINUOUS
 62
     3
 10
 1.2500000000000142
 20
 9.8149545762236414
 11
 1.2500000000000142
 21
-9.8149545762236414
  0
LINE
  8
0
  6
CONTINUOUS
 62
     3
 10
-44.75
 20
 4.9074772881118207
 11
 1.2500000000000142
 21
 4.9074772881118207
  0
LINE
  8
0
  6
CONTINUOUS
 62
     3
 10
-44.75
 20
-4.9074772881118065
 11
 1.2500000000000142
 21
-4.9074772881118065
  0
LINE
  8
0
  6
CONTINUOUS
 62
     2
 10
 1.2500000000000142
 20
-4
 11
 15.5
 21
-4
  0
LINE
  8
0
  6
CONTINUOUS
 62
     2
 10
 1.2500000000000142
 20
 4
 11
 15.5
 21
 4
  0
LINE
  8
0
  6
CONTINUOUS
 62
     2
 10
 15.5
 20
-4
 11
 16.25
 21
-3.25
  0
LINE
  8
0
  6
CONTINUOUS
 62
     2
 10
 15.5
 20
 4
 11
 16.25
 21
 3.25
  0
LINE
  8
0
  6
CONTINUOUS
 62
     2
 10
 16.25
 20
 3.25
 11
 16.25
 21
-3.25
  0
LINE
  8
0
  6
CONTINUOUS
 62
     2
 10
 15.5
 20
 4
 11
 15.5
 21
-4
  0
LINE
  8
0
  6
CONTINUOUS
 62
     7
 10
 2.2499999999999858
 20
-3.25
 11
 16.25
 21
-3.25
  0
LINE
  8
0
  6
CONTINUOUS
 62
     7
 10
 2.2499999999999858
 20
 3.25
 11
 16.25
 21
 3.25
  0
LINE
  8
0
  6
CONTINUOUS
 62
     2
 10
 2.2499999999999858
 20
 4
 11
 2.2499999999999858
 21
-4
  0
LINE
  8
0
  6
CONTINUOUS
 62
     7
 10
 2.2499999999999858
 20
 3.25
 11
 1.2499999999999858
 21
 4
  0
LINE
  8
0
  6
CONTINUOUS
 62
     7
 10
 2.2499999999999858
 20
-3.25
 11
 1.2499999999999858
 21
-4
  0
LINE
  8
0
  6
CONTINUOUS
 62
     7
 10
-45.75
 20
-19.814954576223641
 11
-44.75
 21
-19.814954576223641
  0
TEXT
  8
0
  6
CONTINUOUS
 62
     7
 10
-41.691649048625735
 20
-18.854954576223641
 11
-40.091649048625733
 21
-18.854954576223641
 40
 2
 41
 0.8
  1
１
 50
 0
 72
  5
  0
LINE
  8
0
  6
CONTINUOUS
 62
     7
 10
-38.491649048625703
 20
-19.814954576223641
 11
-44.75
 21
-19.814954576223641
  0
LINE
  8
0
  6
CONTINUOUS
 62
     7
 10
-44.75
 20
-19.814954576223641
 11
-41.852222521132795
 21
-20.591411711531205
  0
LINE
  8
0
  6
CONTINUOUS
 62
     7
 10
-44.75
 20
-19.814954576223641
 11
-41.852222521132795
 21
-19.038497440916078
  0
LINE
  8
0
  6
CONTINUOUS
 62
     7
 10
-56.875
 20
 14
 11
-51.875
 21
 4
  0
LINE
  8
0
  6
CONTINUOUS
 62
     7
 10
-51.875
 20
 4
 11
-52.476441110818023
 21
 6.9390931577985047
  0
LINE
  8
0
  6
CONTINUOUS
 62
     7
 10
-51.875
 20
 4
 11
-53.865409859747992
 21
 6.2446087833335202
  0
LINE
  8
0
  6
CONTINUOUS
 62
     7
 10
-56.875
 20
 14
 11
-72.913319238900613
 21
 14
  0
TEXT
  8
0
  6
CONTINUOUS
 62
     7
 10
-70.874999999999972
 20
 15.25
 11
-66.374999999999972
 21
 15.25
 40
 2.5
 41
 0.8
  1
Ｍ８
 50
 0
 72
  5
  0
LINE
  8
0
  6
CONTINUOUS
 62
     7
 10
 11.874999999999986
 20
 14
 11
 6.8749999999999858
 21
 4
  0
LINE
  8
0
  6
CONTINUOUS
 62
     7
 10
 6.8749999999999858
 20
 4
 11
 8.8654098597479774
 21
 6.2446087833335202
  0
LINE
  8
0
  6
CONTINUOUS
 62
     7
 10
 6.8749999999999858
 20
 4
 11
 7.4764411108180076
 21
 6.9390931577985047
  0
LINE
  8
0
  6
CONTINUOUS
 62
     7
 10
 11.874999999999986
 20
 14
 11
 26.655391120507595
 21
 14
  0
TEXT
  8
0
  6
CONTINUOUS
 62
     7
 10
 20.288319238900613
 20
 15.25
 11
 24.788319238900613
 21
 15.25
 40
 2.5
 41
 0.8
  1
Ｍ８
 50
 0
 72
  5
  0
LINE
  8
0
  6
CONTINUOUS
 62
     7
 10
 2.2499999999999858
 20
-19.814954576223641
 11
 1.2500000000000142
 21
-19.814954576223641
  0
TEXT
  8
0
  6
CONTINUOUS
 62
     7
 10
-3.3570824524313876
 20
-18.854954576223633
 11
-1.7570824524313877
 21
-18.854954576223633
 40
 2
 41
 0.8
  1
１
 50
 0
 72
  5
  0
LINE
  8
0
  6
CONTINUOUS
 62
     7
 10
-4.9570824524313934
 20
-19.814954576223641
 11
 1.2500000000000142
 21
-19.814954576223641
  0
LINE
  8
0
  6
CONTINUOUS
 62
     7
 10
 1.2500000000000142
 20
-19.814954576223641
 11
-1.6477774788671908
 21
-19.038497440916078
  0
LINE
  8
0
  6
CONTINUOUS
 62
     7
 10
 1.2500000000000142
 20
-19.814954576223641
 11
-1.6477774788671908
 21
-20.591411711531205
  0
LINE
  8
0
  6
CONTINUOUS
 62
     7
 10
-44.75
 20
-12.314954576223634
 11
-44.75
 21
-25.774954576223642
  0
LINE
  8
0
  6
CONTINUOUS
 62
     7
 10
-59.75
 20
-5.75
 11
-59.75
 21
-25.774954576223642
  0
LINE
  8
0
  6
CONTINUOUS
 62
     7
 10
-44.75
 20
-24.814954576223634
 11
-59.75
 21
-24.814954576223634
  0
LINE
  8
0
  6
CONTINUOUS
 62
     7
 10
-44.75
 20
-24.814954576223634
 11
-47.647777478867205
 21
-24.038497440916071
  0
LINE
  8
0
  6
CONTINUOUS
 62
     7
 10
-44.75
 20
-24.814954576223634
 11
-47.647777478867205
 21
-25.591411711531197
  0
LINE
  8
0
  6
CONTINUOUS
 62
     7
 10
-59.75
 20
-24.814954576223634
 11
-56.852222521132795
 21
-25.591411711531197
  0
LINE
  8
0
  6
CONTINUOUS
 62
     7
 10
-59.75
 20
-24.814954576223634
 11
-56.852222521132795
 21
-24.038497440916071
  0
TEXT
  8
0
  6
CONTINUOUS
 62
     7
 10
-54.100000000000009
 20
-23.854954576223633
 11
-50.400000000000006
 21
-23.854954576223633
 40
 2
 41
 0.8
  1
15
 50
 0
 72
  5
  0
LINE
  8
0
  6
CONTINUOUS
 62
     7
 10
 1.2500000000000142
 20
-12.314954576223634
 11
 1.2500000000000142
 21
-25.774954576223642
  0
LINE
  8
0
  6
CONTINUOUS
 62
     7
 10
 16.25
 20
-5.75
 11
 16.25
 21
-25.774954576223642
  0
LINE
  8
0
  6
CONTINUOUS
 62
     7
 10
 1.2500000000000142
 20
-24.814954576223634
 11
 16.25
 21
-24.814954576223634
  0
LINE
  8
0
  6
CONTINUOUS
 62
     7
 10
 1.2500000000000142
 20
-24.814954576223634
 11
 4.1477774788672193
 21
-25.591411711531197
  0
LINE
  8
0
  6
CONTINUOUS
 62
     7
 10
 1.2500000000000142
 20
-24.814954576223634
 11
 4.1477774788672193
 21
-24.038497440916071
  0
LINE
  8
0
  6
CONTINUOUS
 62
     7
 10
 16.25
 20
-24.814954576223634
 11
 13.352222521132795
 21
-24.038497440916071
  0
LINE
  8
0
  6
CONTINUOUS
 62
     7
 10
 16.25
 20
-24.814954576223634
 11
 13.352222521132795
 21
-25.591411711531197
  0
TEXT
  8
0
  6
CONTINUOUS
 62
     7
 10
 6.8500000000000059
 20
-23.854954576223633
 11
 10.550000000000004
 21
-23.854954576223633
 40
 2
 41
 0.8
  1
15
 50
 0
 72
  5
  0
LINE
  8
0
  6
CONTINUOUS
 62
     7
 10
-45.75
 20
-6.5
 11
-45.75
 21
-20.774954576223635
  0
LINE
  8
0
  6
CONTINUOUS
 62
     7
 10
-59.75
 20
-19.814954576223641
 11
-45.75
 21
-19.814954576223641
  0
LINE
  8
0
  6
CONTINUOUS
 62
     7
 10
-59.75
 20
-19.814954576223641
 11
-56.852222521132795
 21
-20.591411711531205
  0
LINE
  8
0
  6
CONTINUOUS
 62
     7
 10
-59.75
 20
-19.814954576223641
 11
-56.852222521132795
 21
-19.038497440916078
  0
LINE
  8
0
  6
CONTINUOUS
 62
     7
 10
-45.75
 20
-19.814954576223641
 11
-48.647777478867205
 21
-19.038497440916078
  0
LINE
  8
0
  6
CONTINUOUS
 62
     7
 10
-45.75
 20
-19.814954576223641
 11
-48.647777478867205
 21
-20.591411711531205
  0
TEXT
  8
0
  6
CONTINUOUS
 62
     7
 10
-54.600000000000009
 20
-18.854954576223641
 11
-50.900000000000006
 21
-18.854954576223641
 40
 2
 41
 0.8
  1
14
 50
 0
 72
  5
  0
LINE
  8
0
  6
CONTINUOUS
 62
     7
 10
 2.2499999999999858
 20
-6.5
 11
 2.2499999999999858
 21
-20.774954576223635
  0
LINE
  8
0
  6
CONTINUOUS
 62
     7
 10
 2.2499999999999858
 20
-19.814954576223641
 11
 16.25
 21
-19.814954576223641
  0
LINE
  8
0
  6
CONTINUOUS
 62
     7
 10
 2.2499999999999858
 20
-19.814954576223641
 11
 5.1477774788671908
 21
-20.591411711531205
  0
LINE
  8
0
  6
CONTINUOUS
 62
     7
 10
 2.2499999999999858
 20
-19.814954576223641
 11
 5.1477774788671908
 21
-19.038497440916078
  0
LINE
  8
0
  6
CONTINUOUS
 62
     7
 10
 16.25
 20
-19.814954576223641
 11
 13.352222521132795
 21
-19.038497440916078
  0
LINE
  8
0
  6
CONTINUOUS
 62
     7
 10
 16.25
 20
-19.814954576223641
 11
 13.352222521132795
 21
-20.591411711531205
  0
TEXT
  8
0
  6
CONTINUOUS
 62
     7
 10
 7.3499999999999917
 20
-18.854954576223641
 11
 11.04999999999999
 21
-18.854954576223641
 40
 2
 41
 0.8
  1
14
 50
 0
 72
  5
  0
LINE
  8
0
  6
CONTINUOUS
 62
     7
 10
 64.75
 20
 7.4074772881118065
 11
 64.75
 21
 20.774954576223635
  0
LINE
  8
0
  6
CONTINUOUS
 62
     7
 10
 47.75
 20
 7.4074772881118207
 11
 47.75
 21
 20.774954576223635
  0
LINE
  8
0
  6
CONTINUOUS
 62
     7
 10
 64.75
 20
 19.814954576223641
 11
 47.75
 21
 19.814954576223641
  0
LINE
  8
0
  6
CONTINUOUS
 62
     7
 10
 64.75
 20
 19.814954576223641
 11
 61.852222521132795
 21
 20.591411711531205
  0
LINE
  8
0
  6
CONTINUOUS
 62
     7
 10
 64.75
 20
 19.814954576223641
 11
 61.852222521132795
 21
 19.038497440916078
  0
LINE
  8
0
  6
CONTINUOUS
 62
     7
 10
 47.75
 20
 19.814954576223641
 11
 50.647777478867205
 21
 19.038497440916078
  0
LINE
  8
0
  6
CONTINUOUS
 62
     7
 10
 47.75
 20
 19.814954576223641
 11
 50.647777478867205
 21
 20.591411711531205
  0
TEXT
  8
0
  6
CONTINUOUS
 62
     7
 10
 54.400000000000013
 20
 20.774954576223635
 11
 58.100000000000016
 21
 20.774954576223635
 40
 2
 41
 0.8
  1
17
 50
 0
 72
  5
  0
LINE
  8
0
  6
CONTINUOUS
 62
     7
 10
 58.750000000000007
 20
 9.8149545762236414
 11
 75.710000000000008
 21
 9.8149545762236414
  0
LINE
  8
0
  6
CONTINUOUS
 62
     7
 10
 58.750000000000007
 20
-9.8149545762236414
 11
 75.710000000000008
 21
-9.8149545762236414
  0
LINE
  8
0
  6
CONTINUOUS
 62
     7
 10
 74.75
 20
 9.8149545762236414
 11
 74.75
 21
-9.8149545762236414
  0
LINE
  8
0
  6
CONTINUOUS
 62
     7
 10
 74.75
 20
 9.8149545762236414
 11
 73.973542864692433
 21
 6.9171770973564364
  0
LINE
  8
0
  6
CONTINUOUS
 62
     7
 10
 74.75
 20
 9.8149545762236414
 11
 75.526457135307567
 21
 6.9171770973564364
  0
LINE
  8
0
  6
CONTINUOUS
 62
     7
 10
 74.75
 20
-9.8149545762236414
 11
 75.526457135307567
 21
-6.9171770973564364
  0
LINE
  8
0
  6
CONTINUOUS
 62
     7
 10
 74.75
 20
-9.8149545762236414
 11
 73.973542864692433
 21
-6.9171770973564364
  0
TEXT
  8
0
  6
CONTINUOUS
 62
     7
 10
 73.790000000000006
 20
-3.9500000000000028
 11
 73.790000000000006
 21
 3.9500000000000028
 40
 2
 41
 0.8
  1
19.6
 50
 90.000001535234517
 72
  5
  0
LINE
  8
0
  6
CONTINUOUS
 62
     7
 10
-59.75
 20
 5.25
 11
-59.75
 21
 20.774954576223649
  0
LINE
  8
0
  6
CONTINUOUS
 62
     7
 10
 16.25
 20
 5.25
 11
 16.25
 21
 20.774954576223649
  0
LINE
  8
0
  6
CONTINUOUS
 62
     7
 10
-59.75
 20
 19.814954576223641
 11
 16.25
 21
 19.814954576223641
  0
LINE
  8
0
  6
CONTINUOUS
 62
     7
 10
-59.75
 20
 19.814954576223641
 11
-56.852222521132795
 21
 19.038497440916078
  0
LINE
  8
0
  6
CONTINUOUS
 62
     7
 10
-59.75
 20
 19.814954576223641
 11
-56.852222521132795
 21
 20.591411711531205
  0
LINE
  8
0
  6
CONTINUOUS
 62
     7
 10
 16.25
 20
 19.814954576223641
 11
 13.352222521132795
 21
 20.591411711531205
  0
LINE
  8
0
  6
CONTINUOUS
 62
     7
 10
 16.25
 20
 19.814954576223641
 11
 13.352222521132795
 21
 19.038497440916078
  0
TEXT
  8
0
  6
CONTINUOUS
 62
     7
 10
-23.759999999999994
 20
 20.774954576223646
 11
-19.739999999999995
 21
 20.774954576223642
 40
 2.2000000000000002
 41
 0.8
  1
76
 50
 0
 72
  5
  0
LINE
  8
0
  6
CONTINUOUS
 62
     7
 10
-44.75
 20
-24.814954576223634
 11
 1.2500000000000142
 21
-24.814954576223634
  0
LINE
  8
0
  6
CONTINUOUS
 62
     7
 10
-44.75
 20
-24.814954576223634
 11
-41.852222521132795
 21
-25.591411711531197
  0
LINE
  8
0
  6
CONTINUOUS
 62
     7
 10
-44.75
 20
-24.814954576223634
 11
-41.852222521132795
 21
-24.038497440916071
  0
LINE
  8
0
  6
CONTINUOUS
 62
     7
 10
 1.2500000000000142
 20
-24.814954576223634
 11
-1.6477774788671913
 21
-24.038497440916071
  0
LINE
  8
0
  6
CONTINUOUS
 62
     7
 10
 1.2500000000000142
 20
-24.814954576223634
 11
-1.6477774788671913
 21
-25.591411711531197
  0
TEXT
  8
0
  6
CONTINUOUS
 62
     7
 10
-23.75999999999998
 20
-23.854954576223637
 11
-19.739999999999981
 21
-23.854954576223641
 40
 2.2000000000000002
 41
 0.8
  1
46
 50
 0
 72
  5
  0
LINE
  8
256
  6
CONTINUOUS
 62
     7
 10
-193.30000000000001
 20
 124.99999645625348
 11
-93.300000000000011
 21
 124.99999645625348
  0
LINE
  8
256
  6
CONTINUOUS
 62
     7
 10
-93.300000000000011
 20
 124.9999964562535
 11
-93.300000000000011
 21
 136.99999721136808
  0
TEXT
  8
256
  6
CONTINUOUS
 62
     7
 10
-188.30000000000001
 20
 127.99999604817611
 11
-134.30000000000001
 21
 127.99999604817611
 40
 6
 41
 1
  1
ＬＢ－Ｄ３８３０Ａ
 50
 0
 72
  5
  0
LINE
  8
256
  6
CONTINUOUS
 62
     7
 10
 104.99998474121094
 20
-121.5
 11
 200
 21
-121.5
  0
LINE
  8
256
  6
CONTINUOUS
 62
     7
 10
 170.99998474121094
 20
-109.5
 11
 170.99998474121094
 21
-121.5
  0
TEXT
  8
256
  6
CONTINUOUS
 62
     7
 10
 112.5
 20
-134.25
 11
 148.5
 21
-134.25
 40
 6
 41
 1
  1
ＳＫＵ－４６
 50
 0
 72
  5
  0
TEXT
  8
256
  6
CONTINUOUS
 62
     7
 10
 121.99998474121094
 20
-119.75
 11
 153.99998474121094
 21
-119.75
 40
 5
 41
 0.8
  1
レール浮かし金具
 50
 0
 72
  5
  0
TEXT
  8
256
  6
CONTINUOUS
 62
     7
 10
 106.29998779296875
 20
-112.4499633789062
 11
 111.29998779296875
 21
-112.4499633789062
 40
 2.5
 41
 0.8
  1
品名
 50
 0
 72
  5
  0
TEXT
  8
256
  6
CONTINUOUS
 62
     7
 10
 106.29998779296875
 20
-124.45003051757811
 11
 111.29998779296875
 21
-124.45003051757811
 40
 2.5
 41
 0.8
  1
品番
 50
 0
 72
  5
  0
TEXT
  8
256
  6
CONTINUOUS
 62
     7
 10
 172.30000000000001
 20
-117.25
 11
 198.19999999999999
 21
-117.25
 40
 3.5
 41
 0.8
  1
（六角）４６ｍｍ
 50
 0
 72
  5
  0
LINE
  8
256
  6
CONTINUOUS
 62
     7
 10
 104.99998474121094
 20
-139.5
 11
 104.99998474121094
 21
-109.5
  0
LINE
  8
256
  6
CONTINUOUS
 62
     7
 10
 104.99998474121094
 20
-109.5
 11
 200
 21
-109.5
  0
LINE
  8
256
  6
CONTINUOUS
 62
     7
 10
-193.30000000000001
 20
 136.99999721136808
 11
-193.30000000000001
 21
-139.49999999999994
  0
LINE
  8
256
  6
CONTINUOUS
 62
     7
 10
-193.30000000000001
 20
 136.99999721136808
 11
 200
 21
 136.99999721136808
  0
LINE
  8
256
  6
CONTINUOUS
 62
     7
 10
 200
 20
-139.5
 11
-193.30000000000001
 21
-139.49999999999994
  0
LINE
  8
256
  6
CONTINUOUS
 62
     7
 10
 200
 20
 136.99999721136808
 11
 200
 21
-139.5
  0
ENDSEC
  0
EOF
