  0
SECTION
  2
HEADER
  9
$INSBASE
 10
0.0
20
0.0
  9
$REGENMODE
 70
     1
  9
$DRAGMODE
 70
     1
  9
$DIMTAD
 70
     1
  9
$EXTMIN
 10
-105.000000
 20
-148.500000
 30
 0.0
  9
$EXTMAX
 10
105.000000
 20
148.500000
 30
 0.0
  9
$LUPREC
 70
    3
  9
$AUPREC
 70
    3
  9
$LTSCALE
 40
13.125000
  0
ENDSEC
  0
SECTION
  2
TABLES
  0
TABLE
  2
LTYPE
 70
     6
  0
LTYPE
  2
CONTINUOUS
 70
    64
  3
SOLID
 72
    65
 73
     0
 40
0.0
  0
LTYPE
  2
DASHED2
 70
    64
  3
_ _ _ _ _ _ _ _ _ _ _ _ _ _ _ _ _ _ _ _ _ _ 
 72
    65
 73
     2
 40
0.5
 49
0.25
 49
-0.25
  0
LTYPE
  2
DASHED
 70
    64
  3
__ __ __ __ __ __ __ __ __ __ __ __ __ __ __
 72
    65
 73
     2
 40
0.75
 49
0.5
 49
-0.25
  0
LTYPE
  2
DASHEDX2
 70
    64
  3
____  ____  ____  ____  ____  ____  ____  __
 72
    65
 73
     2
 40
1.5
 49
1.0
 49
-0.5
  0
LTYPE
  2
DOT
 70
    64
  3
............................................
 72
    65
 73
     2
 40
0.25
 49
0
 49
-0.25
  0
LTYPE
  2
DASHDOT
 70
    64
  3
__ . __ . __ . __ . __ . __ . __ . __ . __ .
 72
    65
 73
     4
 40
1.0
 49
0.5
 49
-0.25
 49
0.0
 49
-0.25
  0
LTYPE
  2
CENTER
 70
    64
  3
____ _ ____ _ ____ _ ____ _ ____ _ ____ _ __
 72
    65
 73
     4
 40
2.0
 49
1.25
 49
-0.25
 49
0.25
 49
-0.25
  0
LTYPE
  2
DIVIDE
 70
    64
  3
__ . . __ . . __ . . __ . . __ . . __ . . __
 72
    65
 73
     6
 40
1.25
 49
0.5
 49
-0.25
 49
0.0
 49
-0.25
 49
0.0
 49
-0.25
  0
LTYPE
  2
PHANTOM2
 70
    64
  3
___ _ _ ___ _ _ ___ _ _ ___ _ _ ___ _ _ ___ 
 72
    65
 73
     6
 40
1.25
 49
0.625
 49
-0.125
 49
0.125
 49
-0.125
 49
0.125
 49
-0.125
  0
LTYPE
  2
DOTX2
 70
    64
  3
. . . . . . . . . . . . . . . . . . . . . . 
 72
    65
 73
     2
 40
0.5
 49
0
 49
-0.5
  0
ENDTAB
  0
TABLE
  2
LAYER
 70
   255
  0
LAYER
  2
0
 70
    64
 62
     7
  6
CONTINUOUS
  0
LAYER
  2
1
 70
    64
 62
     7
  6
CONTINUOUS
  0
LAYER
  2
2
 70
    64
 62
     7
  6
CONTINUOUS
  0
LAYER
  2
3
 70
    64
 62
     7
  6
CONTINUOUS
  0
LAYER
  2
4
 70
    64
 62
     7
  6
CONTINUOUS
  0
LAYER
  2
5
 70
    64
 62
     7
  6
CONTINUOUS
  0
LAYER
  2
6
 70
    64
 62
     7
  6
CONTINUOUS
  0
LAYER
  2
7
 70
    64
 62
     7
  6
CONTINUOUS
  0
LAYER
  2
8
 70
    64
 62
     7
  6
CONTINUOUS
  0
LAYER
  2
9
 70
    64
 62
     7
  6
CONTINUOUS
  0
LAYER
  2
10
 70
    64
 62
     7
  6
CONTINUOUS
  0
LAYER
  2
11
 70
    64
 62
     7
  6
CONTINUOUS
  0
LAYER
  2
12
 70
    64
 62
     7
  6
CONTINUOUS
  0
LAYER
  2
13
 70
    64
 62
     7
  6
CONTINUOUS
  0
LAYER
  2
14
 70
    64
 62
     7
  6
CONTINUOUS
  0
LAYER
  2
15
 70
    64
 62
     7
  6
CONTINUOUS
  0
LAYER
  2
16
 70
    64
 62
     7
  6
CONTINUOUS
  0
LAYER
  2
17
 70
    64
 62
     7
  6
CONTINUOUS
  0
LAYER
  2
18
 70
    64
 62
     7
  6
CONTINUOUS
  0
LAYER
  2
19
 70
    64
 62
     7
  6
CONTINUOUS
  0
LAYER
  2
20
 70
    64
 62
     7
  6
CONTINUOUS
  0
LAYER
  2
21
 70
    64
 62
     7
  6
CONTINUOUS
  0
LAYER
  2
22
 70
    64
 62
     7
  6
CONTINUOUS
  0
LAYER
  2
23
 70
    64
 62
     7
  6
CONTINUOUS
  0
LAYER
  2
24
 70
    64
 62
     7
  6
CONTINUOUS
  0
LAYER
  2
25
 70
    64
 62
     7
  6
CONTINUOUS
  0
LAYER
  2
26
 70
    64
 62
     7
  6
CONTINUOUS
  0
LAYER
  2
27
 70
    64
 62
     7
  6
CONTINUOUS
  0
LAYER
  2
28
 70
    64
 62
     7
  6
CONTINUOUS
  0
LAYER
  2
29
 70
    64
 62
     7
  6
CONTINUOUS
  0
LAYER
  2
30
 70
    64
 62
     7
  6
CONTINUOUS
  0
LAYER
  2
31
 70
    64
 62
     7
  6
CONTINUOUS
  0
LAYER
  2
32
 70
    64
 62
     7
  6
CONTINUOUS
  0
LAYER
  2
33
 70
    64
 62
     7
  6
CONTINUOUS
  0
LAYER
  2
34
 70
    64
 62
     7
  6
CONTINUOUS
  0
LAYER
  2
35
 70
    64
 62
     7
  6
CONTINUOUS
  0
LAYER
  2
36
 70
    64
 62
     7
  6
CONTINUOUS
  0
LAYER
  2
37
 70
    64
 62
     7
  6
CONTINUOUS
  0
LAYER
  2
38
 70
    64
 62
     7
  6
CONTINUOUS
  0
LAYER
  2
39
 70
    64
 62
     7
  6
CONTINUOUS
  0
LAYER
  2
40
 70
    64
 62
     7
  6
CONTINUOUS
  0
LAYER
  2
41
 70
    64
 62
     7
  6
CONTINUOUS
  0
LAYER
  2
42
 70
    64
 62
     7
  6
CONTINUOUS
  0
LAYER
  2
43
 70
    64
 62
     7
  6
CONTINUOUS
  0
LAYER
  2
44
 70
    64
 62
     7
  6
CONTINUOUS
  0
LAYER
  2
45
 70
    64
 62
     7
  6
CONTINUOUS
  0
LAYER
  2
46
 70
    64
 62
     7
  6
CONTINUOUS
  0
LAYER
  2
47
 70
    64
 62
     7
  6
CONTINUOUS
  0
LAYER
  2
48
 70
    64
 62
     7
  6
CONTINUOUS
  0
LAYER
  2
49
 70
    64
 62
     7
  6
CONTINUOUS
  0
LAYER
  2
50
 70
    64
 62
     7
  6
CONTINUOUS
  0
LAYER
  2
51
 70
    64
 62
     7
  6
CONTINUOUS
  0
LAYER
  2
52
 70
    64
 62
     7
  6
CONTINUOUS
  0
LAYER
  2
53
 70
    64
 62
     7
  6
CONTINUOUS
  0
LAYER
  2
54
 70
    64
 62
     7
  6
CONTINUOUS
  0
LAYER
  2
55
 70
    64
 62
     7
  6
CONTINUOUS
  0
LAYER
  2
56
 70
    64
 62
     7
  6
CONTINUOUS
  0
LAYER
  2
57
 70
    64
 62
     7
  6
CONTINUOUS
  0
LAYER
  2
58
 70
    64
 62
     7
  6
CONTINUOUS
  0
LAYER
  2
59
 70
    64
 62
     7
  6
CONTINUOUS
  0
LAYER
  2
60
 70
    64
 62
     7
  6
CONTINUOUS
  0
LAYER
  2
61
 70
    64
 62
     7
  6
CONTINUOUS
  0
LAYER
  2
62
 70
    64
 62
     7
  6
CONTINUOUS
  0
LAYER
  2
63
 70
    64
 62
     7
  6
CONTINUOUS
  0
LAYER
  2
64
 70
    64
 62
     7
  6
CONTINUOUS
  0
LAYER
  2
65
 70
    64
 62
     7
  6
CONTINUOUS
  0
LAYER
  2
66
 70
    64
 62
     7
  6
CONTINUOUS
  0
LAYER
  2
67
 70
    64
 62
     7
  6
CONTINUOUS
  0
LAYER
  2
68
 70
    64
 62
     7
  6
CONTINUOUS
  0
LAYER
  2
69
 70
    64
 62
     7
  6
CONTINUOUS
  0
LAYER
  2
70
 70
    64
 62
     7
  6
CONTINUOUS
  0
LAYER
  2
71
 70
    64
 62
     7
  6
CONTINUOUS
  0
LAYER
  2
72
 70
    64
 62
     7
  6
CONTINUOUS
  0
LAYER
  2
73
 70
    64
 62
     7
  6
CONTINUOUS
  0
LAYER
  2
74
 70
    64
 62
     7
  6
CONTINUOUS
  0
LAYER
  2
75
 70
    64
 62
     7
  6
CONTINUOUS
  0
LAYER
  2
76
 70
    64
 62
     7
  6
CONTINUOUS
  0
LAYER
  2
77
 70
    64
 62
     7
  6
CONTINUOUS
  0
LAYER
  2
78
 70
    64
 62
     7
  6
CONTINUOUS
  0
LAYER
  2
79
 70
    64
 62
     7
  6
CONTINUOUS
  0
LAYER
  2
80
 70
    64
 62
     7
  6
CONTINUOUS
  0
LAYER
  2
81
 70
    64
 62
     7
  6
CONTINUOUS
  0
LAYER
  2
82
 70
    64
 62
     7
  6
CONTINUOUS
  0
LAYER
  2
83
 70
    64
 62
     7
  6
CONTINUOUS
  0
LAYER
  2
84
 70
    64
 62
     7
  6
CONTINUOUS
  0
LAYER
  2
85
 70
    64
 62
     7
  6
CONTINUOUS
  0
LAYER
  2
86
 70
    64
 62
     7
  6
CONTINUOUS
  0
LAYER
  2
87
 70
    64
 62
     7
  6
CONTINUOUS
  0
LAYER
  2
88
 70
    64
 62
     7
  6
CONTINUOUS
  0
LAYER
  2
89
 70
    64
 62
     7
  6
CONTINUOUS
  0
LAYER
  2
90
 70
    64
 62
     7
  6
CONTINUOUS
  0
LAYER
  2
91
 70
    64
 62
     7
  6
CONTINUOUS
  0
LAYER
  2
92
 70
    64
 62
     7
  6
CONTINUOUS
  0
LAYER
  2
93
 70
    64
 62
     7
  6
CONTINUOUS
  0
LAYER
  2
94
 70
    64
 62
     7
  6
CONTINUOUS
  0
LAYER
  2
95
 70
    64
 62
     7
  6
CONTINUOUS
  0
LAYER
  2
96
 70
    64
 62
     7
  6
CONTINUOUS
  0
LAYER
  2
97
 70
    64
 62
     7
  6
CONTINUOUS
  0
LAYER
  2
98
 70
    64
 62
     7
  6
CONTINUOUS
  0
LAYER
  2
99
 70
    64
 62
     7
  6
CONTINUOUS
  0
LAYER
  2
100
 70
    64
 62
     7
  6
CONTINUOUS
  0
LAYER
  2
101
 70
    64
 62
     7
  6
CONTINUOUS
  0
LAYER
  2
102
 70
    64
 62
     7
  6
CONTINUOUS
  0
LAYER
  2
103
 70
    64
 62
     7
  6
CONTINUOUS
  0
LAYER
  2
104
 70
    64
 62
     7
  6
CONTINUOUS
  0
LAYER
  2
105
 70
    64
 62
     7
  6
CONTINUOUS
  0
LAYER
  2
106
 70
    64
 62
     7
  6
CONTINUOUS
  0
LAYER
  2
107
 70
    64
 62
     7
  6
CONTINUOUS
  0
LAYER
  2
108
 70
    64
 62
     7
  6
CONTINUOUS
  0
LAYER
  2
109
 70
    64
 62
     7
  6
CONTINUOUS
  0
LAYER
  2
110
 70
    64
 62
     7
  6
CONTINUOUS
  0
LAYER
  2
111
 70
    64
 62
     7
  6
CONTINUOUS
  0
LAYER
  2
112
 70
    64
 62
     7
  6
CONTINUOUS
  0
LAYER
  2
113
 70
    64
 62
     7
  6
CONTINUOUS
  0
LAYER
  2
114
 70
    64
 62
     7
  6
CONTINUOUS
  0
LAYER
  2
115
 70
    64
 62
     7
  6
CONTINUOUS
  0
LAYER
  2
116
 70
    64
 62
     7
  6
CONTINUOUS
  0
LAYER
  2
117
 70
    64
 62
     7
  6
CONTINUOUS
  0
LAYER
  2
118
 70
    64
 62
     7
  6
CONTINUOUS
  0
LAYER
  2
119
 70
    64
 62
     7
  6
CONTINUOUS
  0
LAYER
  2
120
 70
    64
 62
     7
  6
CONTINUOUS
  0
LAYER
  2
121
 70
    64
 62
     7
  6
CONTINUOUS
  0
LAYER
  2
122
 70
    64
 62
     7
  6
CONTINUOUS
  0
LAYER
  2
123
 70
    64
 62
     7
  6
CONTINUOUS
  0
LAYER
  2
124
 70
    64
 62
     7
  6
CONTINUOUS
  0
LAYER
  2
125
 70
    64
 62
     7
  6
CONTINUOUS
  0
LAYER
  2
126
 70
    64
 62
     7
  6
CONTINUOUS
  0
LAYER
  2
127
 70
    64
 62
     7
  6
CONTINUOUS
  0
LAYER
  2
128
 70
    64
 62
     7
  6
CONTINUOUS
  0
LAYER
  2
129
 70
    64
 62
     7
  6
CONTINUOUS
  0
LAYER
  2
130
 70
    64
 62
     7
  6
CONTINUOUS
  0
LAYER
  2
131
 70
    64
 62
     7
  6
CONTINUOUS
  0
LAYER
  2
132
 70
    64
 62
     7
  6
CONTINUOUS
  0
LAYER
  2
133
 70
    64
 62
     7
  6
CONTINUOUS
  0
LAYER
  2
134
 70
    64
 62
     7
  6
CONTINUOUS
  0
LAYER
  2
135
 70
    64
 62
     7
  6
CONTINUOUS
  0
LAYER
  2
136
 70
    64
 62
     7
  6
CONTINUOUS
  0
LAYER
  2
137
 70
    64
 62
     7
  6
CONTINUOUS
  0
LAYER
  2
138
 70
    64
 62
     7
  6
CONTINUOUS
  0
LAYER
  2
139
 70
    64
 62
     7
  6
CONTINUOUS
  0
LAYER
  2
140
 70
    64
 62
     7
  6
CONTINUOUS
  0
LAYER
  2
141
 70
    64
 62
     7
  6
CONTINUOUS
  0
LAYER
  2
142
 70
    64
 62
     7
  6
CONTINUOUS
  0
LAYER
  2
143
 70
    64
 62
     7
  6
CONTINUOUS
  0
LAYER
  2
144
 70
    64
 62
     7
  6
CONTINUOUS
  0
LAYER
  2
145
 70
    64
 62
     7
  6
CONTINUOUS
  0
LAYER
  2
146
 70
    64
 62
     7
  6
CONTINUOUS
  0
LAYER
  2
147
 70
    64
 62
     7
  6
CONTINUOUS
  0
LAYER
  2
148
 70
    64
 62
     7
  6
CONTINUOUS
  0
LAYER
  2
149
 70
    64
 62
     7
  6
CONTINUOUS
  0
LAYER
  2
150
 70
    64
 62
     7
  6
CONTINUOUS
  0
LAYER
  2
151
 70
    64
 62
     7
  6
CONTINUOUS
  0
LAYER
  2
152
 70
    64
 62
     7
  6
CONTINUOUS
  0
LAYER
  2
153
 70
    64
 62
     7
  6
CONTINUOUS
  0
LAYER
  2
154
 70
    64
 62
     7
  6
CONTINUOUS
  0
LAYER
  2
155
 70
    64
 62
     7
  6
CONTINUOUS
  0
LAYER
  2
156
 70
    64
 62
     7
  6
CONTINUOUS
  0
LAYER
  2
157
 70
    64
 62
     7
  6
CONTINUOUS
  0
LAYER
  2
158
 70
    64
 62
     7
  6
CONTINUOUS
  0
LAYER
  2
159
 70
    64
 62
     7
  6
CONTINUOUS
  0
LAYER
  2
160
 70
    64
 62
     7
  6
CONTINUOUS
  0
LAYER
  2
161
 70
    64
 62
     7
  6
CONTINUOUS
  0
LAYER
  2
162
 70
    64
 62
     7
  6
CONTINUOUS
  0
LAYER
  2
163
 70
    64
 62
     7
  6
CONTINUOUS
  0
LAYER
  2
164
 70
    64
 62
     7
  6
CONTINUOUS
  0
LAYER
  2
165
 70
    64
 62
     7
  6
CONTINUOUS
  0
LAYER
  2
166
 70
    64
 62
     7
  6
CONTINUOUS
  0
LAYER
  2
167
 70
    64
 62
     7
  6
CONTINUOUS
  0
LAYER
  2
168
 70
    64
 62
     7
  6
CONTINUOUS
  0
LAYER
  2
169
 70
    64
 62
     7
  6
CONTINUOUS
  0
LAYER
  2
170
 70
    64
 62
     7
  6
CONTINUOUS
  0
LAYER
  2
171
 70
    64
 62
     7
  6
CONTINUOUS
  0
LAYER
  2
172
 70
    64
 62
     7
  6
CONTINUOUS
  0
LAYER
  2
173
 70
    64
 62
     7
  6
CONTINUOUS
  0
LAYER
  2
174
 70
    64
 62
     7
  6
CONTINUOUS
  0
LAYER
  2
175
 70
    64
 62
     7
  6
CONTINUOUS
  0
LAYER
  2
176
 70
    64
 62
     7
  6
CONTINUOUS
  0
LAYER
  2
177
 70
    64
 62
     7
  6
CONTINUOUS
  0
LAYER
  2
178
 70
    64
 62
     7
  6
CONTINUOUS
  0
LAYER
  2
179
 70
    64
 62
     7
  6
CONTINUOUS
  0
LAYER
  2
180
 70
    64
 62
     7
  6
CONTINUOUS
  0
LAYER
  2
181
 70
    64
 62
     7
  6
CONTINUOUS
  0
LAYER
  2
182
 70
    64
 62
     7
  6
CONTINUOUS
  0
LAYER
  2
183
 70
    64
 62
     7
  6
CONTINUOUS
  0
LAYER
  2
184
 70
    64
 62
     7
  6
CONTINUOUS
  0
LAYER
  2
185
 70
    64
 62
     7
  6
CONTINUOUS
  0
LAYER
  2
186
 70
    64
 62
     7
  6
CONTINUOUS
  0
LAYER
  2
187
 70
    64
 62
     7
  6
CONTINUOUS
  0
LAYER
  2
188
 70
    64
 62
     7
  6
CONTINUOUS
  0
LAYER
  2
189
 70
    64
 62
     7
  6
CONTINUOUS
  0
LAYER
  2
190
 70
    64
 62
     7
  6
CONTINUOUS
  0
LAYER
  2
191
 70
    64
 62
     7
  6
CONTINUOUS
  0
LAYER
  2
192
 70
    64
 62
     7
  6
CONTINUOUS
  0
LAYER
  2
193
 70
    64
 62
     7
  6
CONTINUOUS
  0
LAYER
  2
194
 70
    64
 62
     7
  6
CONTINUOUS
  0
LAYER
  2
195
 70
    64
 62
     7
  6
CONTINUOUS
  0
LAYER
  2
196
 70
    64
 62
     7
  6
CONTINUOUS
  0
LAYER
  2
197
 70
    64
 62
     7
  6
CONTINUOUS
  0
LAYER
  2
198
 70
    64
 62
     7
  6
CONTINUOUS
  0
LAYER
  2
199
 70
    64
 62
     7
  6
CONTINUOUS
  0
LAYER
  2
200
 70
    64
 62
     7
  6
CONTINUOUS
  0
LAYER
  2
201
 70
    64
 62
     7
  6
CONTINUOUS
  0
LAYER
  2
202
 70
    64
 62
     7
  6
CONTINUOUS
  0
LAYER
  2
203
 70
    64
 62
     7
  6
CONTINUOUS
  0
LAYER
  2
204
 70
    64
 62
     7
  6
CONTINUOUS
  0
LAYER
  2
205
 70
    64
 62
     7
  6
CONTINUOUS
  0
LAYER
  2
206
 70
    64
 62
     7
  6
CONTINUOUS
  0
LAYER
  2
207
 70
    64
 62
     7
  6
CONTINUOUS
  0
LAYER
  2
208
 70
    64
 62
     7
  6
CONTINUOUS
  0
LAYER
  2
209
 70
    64
 62
     7
  6
CONTINUOUS
  0
LAYER
  2
210
 70
    64
 62
     7
  6
CONTINUOUS
  0
LAYER
  2
211
 70
    64
 62
     7
  6
CONTINUOUS
  0
LAYER
  2
212
 70
    64
 62
     7
  6
CONTINUOUS
  0
LAYER
  2
213
 70
    64
 62
     7
  6
CONTINUOUS
  0
LAYER
  2
214
 70
    64
 62
     7
  6
CONTINUOUS
  0
LAYER
  2
215
 70
    64
 62
     7
  6
CONTINUOUS
  0
LAYER
  2
216
 70
    64
 62
     7
  6
CONTINUOUS
  0
LAYER
  2
217
 70
    64
 62
     7
  6
CONTINUOUS
  0
LAYER
  2
218
 70
    64
 62
     7
  6
CONTINUOUS
  0
LAYER
  2
219
 70
    64
 62
     7
  6
CONTINUOUS
  0
LAYER
  2
220
 70
    64
 62
     7
  6
CONTINUOUS
  0
LAYER
  2
221
 70
    64
 62
     7
  6
CONTINUOUS
  0
LAYER
  2
222
 70
    64
 62
     7
  6
CONTINUOUS
  0
LAYER
  2
223
 70
    64
 62
     7
  6
CONTINUOUS
  0
LAYER
  2
224
 70
    64
 62
     7
  6
CONTINUOUS
  0
LAYER
  2
225
 70
    64
 62
     7
  6
CONTINUOUS
  0
LAYER
  2
226
 70
    64
 62
     7
  6
CONTINUOUS
  0
LAYER
  2
227
 70
    64
 62
     7
  6
CONTINUOUS
  0
LAYER
  2
228
 70
    64
 62
     7
  6
CONTINUOUS
  0
LAYER
  2
229
 70
    64
 62
     7
  6
CONTINUOUS
  0
LAYER
  2
230
 70
    64
 62
     7
  6
CONTINUOUS
  0
LAYER
  2
231
 70
    64
 62
     7
  6
CONTINUOUS
  0
LAYER
  2
232
 70
    64
 62
     7
  6
CONTINUOUS
  0
LAYER
  2
233
 70
    64
 62
     7
  6
CONTINUOUS
  0
LAYER
  2
234
 70
    64
 62
     7
  6
CONTINUOUS
  0
LAYER
  2
235
 70
    64
 62
     7
  6
CONTINUOUS
  0
LAYER
  2
236
 70
    64
 62
     7
  6
CONTINUOUS
  0
LAYER
  2
237
 70
    64
 62
     7
  6
CONTINUOUS
  0
LAYER
  2
238
 70
    64
 62
     7
  6
CONTINUOUS
  0
LAYER
  2
239
 70
    64
 62
     7
  6
CONTINUOUS
  0
LAYER
  2
240
 70
    64
 62
     7
  6
CONTINUOUS
  0
LAYER
  2
241
 70
    64
 62
     7
  6
CONTINUOUS
  0
LAYER
  2
242
 70
    64
 62
     7
  6
CONTINUOUS
  0
LAYER
  2
243
 70
    64
 62
     7
  6
CONTINUOUS
  0
LAYER
  2
244
 70
    64
 62
     7
  6
CONTINUOUS
  0
LAYER
  2
245
 70
    64
 62
     7
  6
CONTINUOUS
  0
LAYER
  2
246
 70
    64
 62
     7
  6
CONTINUOUS
  0
LAYER
  2
247
 70
    64
 62
     7
  6
CONTINUOUS
  0
LAYER
  2
248
 70
    64
 62
     7
  6
CONTINUOUS
  0
LAYER
  2
249
 70
    64
 62
     7
  6
CONTINUOUS
  0
LAYER
  2
250
 70
    64
 62
     7
  6
CONTINUOUS
  0
LAYER
  2
251
 70
    64
 62
     7
  6
CONTINUOUS
  0
LAYER
  2
252
 70
    64
 62
     7
  6
CONTINUOUS
  0
LAYER
  2
253
 70
    64
 62
     7
  6
CONTINUOUS
  0
LAYER
  2
254
 70
    64
 62
     7
  6
CONTINUOUS
  0
LAYER
  2
255
 70
    64
 62
     7
  6
CONTINUOUS
  0
ENDTAB
  0
TABLE
  2
STYLE
 70
     2
  0
STYLE
  2
STANDARD
 70
    64
 40
0.0
 41
1.0
 50
0.0
 71
     0
 42
3.000000
  3
TXT
  4
BIGFONT
  0
ENDTAB
  0
ENDSEC
  0
SECTION
  2
BLOCKS
  0
BLOCK
  8
0
  2
CADWIN-G0
 70
    0
 10
0.0
 20
0.0
  0
LINE
  8
0
  6
CONTINUOUS
 62
     3
 10
-9.2500326876272876
 20
 2.9178878112417301
 11
 21.754776783989453
 21
 2.9178878112417301
  0
ARC
  8
0
  6
CONTINUOUS
 62
     3
 10
-9.2500326876272876
 20
 4.7928878112417301
 40
 1.875
 50
 150.00000255872399
 51
-90.000001535234532
  0
ARC
  8
0
  6
CONTINUOUS
 62
     3
 10
 21.754776783989453
 20
 4.7928878112417301
 40
 1.875
 50
-90.000001535234816
 51
 30.000000511744783
  0
LINE
  8
0
  6
CONTINUOUS
 62
     3
 10
-10.87383031972306
 20
 5.7303878112417301
 11
 4.6285744160852804
 21
 32.581340453158262
  0
LINE
  8
0
  6
CONTINUOUS
 62
     3
 10
 7.8761696802769396
 20
 32.581340453158262
 11
 23.378574416085225
 21
 5.7303878112417301
  0
ARC
  8
0
  6
CONTINUOUS
 62
     3
 10
 6.2523720481810532
 20
 31.643840453158266
 40
 1.875
 50
 30.000000511744894
 51
 150.00000255872422
  0
LINE
  8
0
  6
CONTINUOUS
 62
     3
 10
 6.2523720481810532
 20
 31.643840453158152
 11
-9.2500326876272876
 21
 4.7928878112417301
  0
LINE
  8
0
  6
CONTINUOUS
 62
     3
 10
-9.2500326876272876
 20
 4.7928878112417301
 11
 21.754776783989453
 21
 4.7928878112417301
  0
LINE
  8
0
  6
CONTINUOUS
 62
     3
 10
 6.2523720481810532
 20
 31.643840453158152
 11
 21.754776783989453
 21
 4.7928878112417301
  0
LINE
  8
0
  6
CONTINUOUS
 62
     7
 10
-6.0481068986756892
 20
 2.9178878112417301
 11
-4.1731068986756892
 21
 4.7928878112417301
  0
LINE
  8
0
  6
CONTINUOUS
 62
     7
 10
 12.264512689766059
 20
 21.230507399683422
 11
 13.637107953957605
 21
 22.603102663874967
  0
LINE
  8
0
  6
CONTINUOUS
 62
     7
 10
-6.4723737138612361
 20
 2.9178878112417301
 11
-4.5973737138612361
 21
 4.7928878112417301
  0
LINE
  8
0
  6
CONTINUOUS
 62
     7
 10
 12.109220257425386
 20
 21.499481782528353
 11
 13.481815521617046
 21
 22.872077046720012
  0
LINE
  8
0
  6
CONTINUOUS
 62
     7
 10
-6.8966405290467829
 20
 2.9178878112417301
 11
-5.0216405290467829
 21
 4.7928878112417301
  0
LINE
  8
0
  6
CONTINUOUS
 62
     7
 10
 11.953927825084714
 20
 21.768456165373227
 11
 13.326523089276373
 21
 23.141051429564886
  0
LINE
  8
0
  6
CONTINUOUS
 62
     7
 10
-7.3209073442323298
 20
 2.9178878112417301
 11
-5.4459073442323298
 21
 4.7928878112417301
  0
LINE
  8
0
  6
CONTINUOUS
 62
     7
 10
 11.798635392744098
 20
 22.037430548218101
 11
 13.171230656935757
 21
 23.41002581240976
  0
LINE
  8
0
  6
CONTINUOUS
 62
     7
 10
-7.7451741594178767
 20
 2.9178878112417301
 11
-5.8701741594178767
 21
 4.7928878112417301
  0
LINE
  8
0
  6
CONTINUOUS
 62
     7
 10
 11.643342960403482
 20
 22.306404931063032
 11
 13.015938224595141
 21
 23.679000195254691
  0
LINE
  8
0
  6
CONTINUOUS
 62
     7
 10
-8.1694409746034236
 20
 2.9178878112417301
 11
-6.2944409746034236
 21
 4.7928878112417301
  0
LINE
  8
0
  6
CONTINUOUS
 62
     7
 10
 11.488050528062866
 20
 22.575379313908019
 11
 12.860645792254468
 21
 23.947974578099622
  0
LINE
  8
0
  6
CONTINUOUS
 62
     7
 10
-8.5937077897889704
 20
 2.9178878112417301
 11
-6.7187077897889704
 21
 4.7928878112417301
  0
LINE
  8
0
  6
CONTINUOUS
 62
     7
 10
 11.33275809572225
 20
 22.844353696752894
 11
 12.705353359913909
 21
 24.216948960944553
  0
LINE
  8
0
  6
CONTINUOUS
 62
     7
 10
-9.0179746049745173
 20
 2.9178878112417301
 11
-7.1429746049745173
 21
 4.7928878112417301
  0
LINE
  8
0
  6
CONTINUOUS
 62
     7
 10
 11.177465663381634
 20
 23.113328079597824
 11
 12.550060927573293
 21
 24.485923343789484
  0
LINE
  8
0
  6
CONTINUOUS
 62
     7
 10
-9.4332678369383185
 20
 2.9268613944635895
 11
-7.5672414201600642
 21
 4.7928878112417301
  0
LINE
  8
0
  6
CONTINUOUS
 62
     7
 10
 11.022173231040961
 20
 23.382302462442755
 11
 12.39476849523262
 21
 24.754897726634415
  0
LINE
  8
0
  6
CONTINUOUS
 62
     7
 10
-9.7877512804471163
 20
 2.9966447661402817
 11
-7.9915082353456111
 21
 4.7928878112417301
  0
LINE
  8
0
  6
CONTINUOUS
 62
     7
 10
 10.866880798700288
 20
 23.651276845287629
 11
 12.239476062891947
 21
 25.023872109479289
  0
LINE
  8
0
  6
CONTINUOUS
 62
     7
 10
-10.09140255404626
 20
 3.1172603077267986
 11
-8.4157750505311579
 21
 4.7928878112417301
  0
LINE
  8
0
  6
CONTINUOUS
 62
     7
 10
 10.711588366359672
 20
 23.920251228132503
 11
 12.084183630551331
 21
 25.292846492324163
  0
LINE
  8
0
  6
CONTINUOUS
 62
     7
 10
-10.354919863343673
 20
 3.2780098136147053
 11
-8.8400418657167048
 21
 4.7928878112417301
  0
LINE
  8
0
  6
CONTINUOUS
 62
     7
 10
 10.556295934019113
 20
 24.189225610977548
 11
 11.928891198210772
 21
 25.561820875169207
  0
LINE
  8
0
  6
CONTINUOUS
 62
     7
 10
-10.582977832747678
 20
 3.4742186593963602
 11
-9.2305313181495077
 21
 4.8266651739944173
  0
LINE
  8
0
  6
CONTINUOUS
 62
     7
 10
 10.40100350167844
 20
 24.458199993822422
 11
 11.7735987658701
 21
 25.830795258014081
  0
LINE
  8
0
  6
CONTINUOUS
 62
     7
 10
-10.776872658070863
 20
 3.7045906492587228
 11
-8.6509720706234017
 21
 5.830491236706127
  0
LINE
  8
0
  6
CONTINUOUS
 62
     7
 10
 10.245711069337824
 20
 24.727174376667296
 11
 11.618306333529484
 21
 26.099769640858955
  0
LINE
  8
0
  6
CONTINUOUS
 62
     7
 10
-10.935114199634461
 20
 3.9706159228806719
 11
-8.071412823097182
 21
 6.8343172994178367
  0
LINE
  8
0
  6
CONTINUOUS
 62
     7
 10
 10.090418636997208
 20
 24.996148759512227
 11
 11.463013901188868
 21
 26.368744023703886
  0
LINE
  8
0
  6
CONTINUOUS
 62
     7
 10
-11.052740317989935
 20
 4.2772566197108581
 11
-7.4918535755710192
 21
 7.8381433621295464
  0
LINE
  8
0
  6
CONTINUOUS
 62
     7
 10
 9.9351262046565356
 20
 25.265123142357158
 11
 11.307721468848195
 21
 26.637718406548817
  0
LINE
  8
0
  6
CONTINUOUS
 62
     7
 10
-11.118443616451065
 20
 4.6358201364351608
 11
-6.9122943280448563
 21
 8.841969424841313
  0
LINE
  8
0
  6
CONTINUOUS
 62
     7
 10
 9.7798337723159765
 20
 25.534097525202089
 11
 11.152429036507636
 21
 26.906692789393748
  0
LINE
  8
0
  6
CONTINUOUS
 62
     7
 10
-11.10371730180251
 20
 5.0748132662691496
 11
-6.3327350805186367
 21
 9.8457954875530795
  0
LINE
  8
0
  6
CONTINUOUS
 62
     7
 10
 9.6245413399753605
 20
 25.80307190804702
 11
 10.99713660416702
 21
 27.175667172238679
  0
LINE
  8
0
  6
CONTINUOUS
 62
     7
 10
-10.87576135325836
 20
 5.7270360299989598
 11
-5.753175832992417
 21
 10.849621550264789
  0
LINE
  8
0
  6
CONTINUOUS
 62
     7
 10
 9.4692489076346877
 20
 26.072046290891951
 11
 10.841844171826347
 21
 27.44464155508361
  0
LINE
  8
0
  6
CONTINUOUS
 62
     7
 10
-10.2962118496578
 20
 6.7308523487849534
 11
-5.1736165854663678
 21
 11.853447612976442
  0
LINE
  8
0
  6
CONTINUOUS
 62
     7
 10
 9.3139564752940149
 20
 26.341020673736825
 11
 10.686551739485674
 21
 27.713615937928484
  0
LINE
  8
0
  6
CONTINUOUS
 62
     7
 10
-9.7166526021316368
 20
 7.7346784114966631
 11
-4.5940573379401481
 21
 12.857273675688209
  0
LINE
  8
0
  6
CONTINUOUS
 62
     7
 10
 9.158664042953399
 20
 26.609995056581699
 11
 10.531259307145172
 21
 27.982590320773472
  0
LINE
  8
0
  6
CONTINUOUS
 62
     7
 10
-9.137093354605474
 20
 8.7385044742084297
 11
-4.0144980904139285
 21
 13.861099738399918
  0
LINE
  8
0
  6
CONTINUOUS
 62
     7
 10
 9.0033716106128399
 20
 26.878969439426744
 11
 10.375966874804499
 21
 28.251564703618403
  0
LINE
  8
0
  6
CONTINUOUS
 62
     7
 10
-8.5575341070792543
 20
 9.7423305369201962
 11
-3.4349388428877656
 21
 14.864925801111628
  0
LINE
  8
0
  6
CONTINUOUS
 62
     7
 10
 8.8480791782721671
 20
 27.147943822271618
 11
 10.220674442463826
 21
 28.520539086463277
  0
LINE
  8
0
  6
CONTINUOUS
 62
     7
 10
-7.9779748595530346
 20
 10.746156599631906
 11
-2.8553795953616028
 21
 15.868751863823395
  0
LINE
  8
0
  6
CONTINUOUS
 62
     7
 10
 8.6927867459315511
 20
 27.416918205116492
 11
 10.06538201012321
 21
 28.789513469308151
  0
LINE
  8
0
  6
CONTINUOUS
 62
     7
 10
-7.3984156120269855
 20
 11.749982662343559
 11
-2.27582034783544
 21
 16.872577926535048
  0
LINE
  8
0
  6
CONTINUOUS
 62
     7
 10
 8.5374943135909351
 20
 27.685892587961423
 11
 9.9100895777825944
 21
 29.058487852153082
  0
LINE
  8
0
  6
CONTINUOUS
 62
     7
 10
-6.8188563645007658
 20
 12.753808725055325
 11
-1.6962611003092771
 21
 17.876403989246757
  0
LINE
  8
0
  6
CONTINUOUS
 62
     7
 10
 8.3822018812502623
 20
 27.954866970806354
 11
 9.7547971454419784
 21
 29.32746223499807
  0
LINE
  8
0
  6
CONTINUOUS
 62
     7
 10
-6.2392971169745461
 20
 13.757634787767035
 11
-1.1167018527831143
 21
 18.880230051958524
  0
LINE
  8
0
  6
CONTINUOUS
 62
     7
 10
 8.2269094489097032
 20
 28.223841353651284
 11
 9.5995047131013624
 21
 29.596436617842944
  0
LINE
  8
0
  6
CONTINUOUS
 62
     7
 10
-5.6597378694483833
 20
 14.761460850478745
 11
-0.5371426052568946
 21
 19.88405611467029
  0
LINE
  8
0
  6
CONTINUOUS
 62
     7
 10
 8.0716170165690873
 20
 28.492815736496215
 11
 9.4442122807607465
 21
 29.865411000687875
  0
LINE
  8
0
  6
CONTINUOUS
 62
     7
 10
-5.0801786219222205
 20
 15.765286913190511
 11
 0.0424166422693251
 21
 20.887882177382
  0
LINE
  8
0
  6
CONTINUOUS
 62
     7
 10
 7.9163245842284145
 20
 28.761790119341146
 11
 9.2889198484200737
 21
 30.134385383532805
  0
LINE
  8
0
  6
CONTINUOUS
 62
     7
 10
-4.5006193743960576
 20
 16.769112975902164
 11
 0.6219758897953742
 21
 21.891708240093653
  0
LINE
  8
0
  6
CONTINUOUS
 62
     7
 10
 7.7610321518877416
 20
 29.03076450218602
 11
 9.1336274160794009
 21
 30.40335976637768
  0
LINE
  8
0
  6
CONTINUOUS
 62
     7
 10
-3.9210601268698948
 20
 17.772939038613874
 11
 1.2015351373215939
 21
 22.895534302805419
  0
LINE
  8
0
  6
CONTINUOUS
 62
     7
 10
 7.6057397195471257
 20
 29.299738885030894
 11
 8.9783349837388986
 21
 30.672334149222667
  0
LINE
  8
0
  6
CONTINUOUS
 62
     7
 10
-3.341500879343732
 20
 18.77676510132564
 11
 1.7810943848478136
 21
 23.899360365517129
  0
LINE
  8
0
  6
CONTINUOUS
 62
     7
 10
 7.4504472872065097
 20
 29.568713267875825
 11
 8.8230425513982258
 21
 30.941308532067598
  0
LINE
  8
0
  6
CONTINUOUS
 62
     7
 10
-2.7619416318175123
 20
 19.780591164037407
 11
 2.3606536323739764
 21
 24.903186428228839
  0
LINE
  8
0
  6
CONTINUOUS
 62
     7
 10
 7.2951548548658938
 20
 29.837687650720813
 11
 8.667750119057553
 21
 31.210282914912472
  0
LINE
  8
0
  6
CONTINUOUS
 62
     7
 10
-2.1823823842912926
 20
 20.784417226749117
 11
 2.9402128799001392
 21
 25.907012490940605
  0
LINE
  8
0
  6
CONTINUOUS
 62
     7
 10
 7.1398624225252778
 20
 30.106662033565687
 11
 8.512457686716937
 21
 31.479257297757346
  0
LINE
  8
0
  6
CONTINUOUS
 62
     7
 10
-1.6028231367652435
 20
 21.78824328946077
 11
 3.5197721274263021
 21
 26.910838553652258
  0
LINE
  8
0
  6
CONTINUOUS
 62
     7
 10
 6.9845699901846618
 20
 30.375636416410618
 11
 8.3571652543763211
 21
 31.748231680602277
  0
LINE
  8
0
  6
CONTINUOUS
 62
     7
 10
-1.0232638892390238
 20
 22.792069352172536
 11
 4.0993313749524649
 21
 27.914664616363968
  0
LINE
  8
0
  6
CONTINUOUS
 62
     7
 10
 6.829277557843989
 20
 30.644610799255549
 11
 8.2018728220357051
 21
 32.017206063447261
  0
LINE
  8
0
  6
CONTINUOUS
 62
     7
 10
-0.4437046417128041
 20
 23.795895414884246
 11
 4.6788906224786277
 21
 28.918490679075735
  0
LINE
  8
0
  6
CONTINUOUS
 62
     7
 10
 6.6739851255033162
 20
 30.913585182100423
 11
 8.0465803896950892
 21
 32.286180446292136
  0
LINE
  8
0
  6
CONTINUOUS
 62
     7
 10
 0.1358546058133587
 20
 24.799721477595956
 11
 5.2584498700048474
 21
 29.922316741787501
  0
LINE
  8
0
  6
CONTINUOUS
 62
     7
 10
 6.518692693162814
 20
 31.182559564945411
 11
 7.8912879573544732
 21
 32.555154829137066
  0
LINE
  8
0
  6
CONTINUOUS
 62
     7
 10
 0.7154138533394647
 20
 25.803547540307665
 11
 5.8380091175310671
 21
 30.926142804499211
  0
LINE
  8
0
  6
CONTINUOUS
 62
     7
 10
 6.3634002608221412
 20
 31.451533947790342
 11
 7.7211579968527193
 21
 32.809291683820973
  0
LINE
  8
0
  6
CONTINUOUS
 62
     7
 10
 1.2949731008656844
 20
 26.807373603019375
 11
 7.5163485913188541
 21
 33.028749093472655
  0
LINE
  8
0
  6
CONTINUOUS
 62
     7
 10
 1.8745323483918472
 20
 27.811199665731085
 11
 7.2772707419174711
 21
 33.213938059256819
  0
LINE
  8
0
  6
CONTINUOUS
 62
     7
 10
 2.4540915959180101
 20
 28.815025728442851
 11
 7.0016756474259072
 21
 33.362609779950915
  0
LINE
  8
0
  6
CONTINUOUS
 62
     7
 10
 3.0336508434442297
 20
 29.818851791154618
 11
 6.6834195098461695
 21
 33.468620457556554
  0
LINE
  8
0
  6
CONTINUOUS
 62
     7
 10
 3.6132100909703357
 20
 30.822677853866214
 11
 6.3085283794010483
 21
 33.517996142297036
  0
LINE
  8
0
  6
CONTINUOUS
 62
     7
 10
 4.1927693384964986
 20
 31.82650391657798
 11
 5.8389597626395133
 21
 33.472694340721048
  0
LINE
  8
0
  6
CONTINUOUS
 62
     7
 10
-5.6238400834901423
 20
 2.9178878112417301
 11
-3.7488400834901423
 21
 4.7928878112417301
  0
LINE
  8
0
  6
CONTINUOUS
 62
     7
 10
 12.419805122106562
 20
 20.961533016838434
 11
 13.792400386298221
 21
 22.334128281030093
  0
LINE
  8
0
  6
CONTINUOUS
 62
     7
 10
-5.1995732683045954
 20
 2.9178878112417301
 11
-3.3245732683045954
 21
 4.7928878112417301
  0
LINE
  8
0
  6
CONTINUOUS
 62
     7
 10
 12.575097554447234
 20
 20.69255863399356
 11
 13.947692818638894
 21
 22.065153898185219
  0
LINE
  8
0
  6
CONTINUOUS
 62
     7
 10
-4.7753064531190486
 20
 2.9178878112417301
 11
-2.9003064531190486
 21
 4.7928878112417301
  0
LINE
  8
0
  6
CONTINUOUS
 62
     7
 10
 12.730389986787907
 20
 20.423584251148629
 11
 14.102985250979566
 21
 21.796179515340288
  0
LINE
  8
0
  6
CONTINUOUS
 62
     7
 10
-4.3510396379335017
 20
 2.9178878112417301
 11
-2.4760396379335017
 21
 4.7928878112417301
  0
LINE
  8
0
  6
CONTINUOUS
 62
     7
 10
 12.885682419128523
 20
 20.154609868303698
 11
 14.258277683320182
 21
 21.527205132495357
  0
LINE
  8
0
  6
CONTINUOUS
 62
     7
 10
-3.9267728227479548
 20
 2.9178878112417301
 11
-2.0517728227479548
 21
 4.7928878112417301
  0
LINE
  8
0
  6
CONTINUOUS
 62
     7
 10
 13.040974851469139
 20
 19.885635485458824
 11
 14.413570115660741
 21
 21.258230749650426
  0
LINE
  8
0
  6
CONTINUOUS
 62
     7
 10
-3.5025060075624079
 20
 2.9178878112417301
 11
-1.6275060075624079
 21
 4.7928878112417301
  0
LINE
  8
0
  6
CONTINUOUS
 62
     7
 10
 13.196267283809755
 20
 19.616661102613836
 11
 14.568862548001414
 21
 20.989256366805495
  0
LINE
  8
0
  6
CONTINUOUS
 62
     7
 10
-3.0782391923768611
 20
 2.9178878112417301
 11
-1.2032391923768611
 21
 4.7928878112417301
  0
LINE
  8
0
  6
CONTINUOUS
 62
     7
 10
 13.351559716150371
 20
 19.347686719768905
 11
 14.72415498034203
 21
 20.720281983960565
  0
LINE
  8
0
  6
CONTINUOUS
 62
     7
 10
-2.6539723771913142
 20
 2.9178878112417301
 11
-0.7789723771913142
 21
 4.7928878112417301
  0
LINE
  8
0
  6
CONTINUOUS
 62
     7
 10
 13.506852148490987
 20
 19.078712336924031
 11
 14.879447412682646
 21
 20.45130760111569
  0
LINE
  8
0
  6
CONTINUOUS
 62
     7
 10
-2.2297055620057673
 20
 2.9178878112417301
 11
-0.3547055620057673
 21
 4.7928878112417301
  0
LINE
  8
0
  6
CONTINUOUS
 62
     7
 10
 13.66214458083166
 20
 18.809737954079157
 11
 15.034739845023319
 21
 20.182333218270816
  0
LINE
  8
0
  6
CONTINUOUS
 62
     7
 10
-1.8054387468202204
 20
 2.9178878112417301
 11
 0.0695612531797796
 21
 4.7928878112417301
  0
LINE
  8
0
  6
CONTINUOUS
 62
     7
 10
 13.817437013172333
 20
 18.540763571234226
 11
 15.190032277363878
 21
 19.913358835425772
  0
LINE
  8
0
  6
CONTINUOUS
 62
     7
 10
-1.3811719316346736
 20
 2.9178878112417301
 11
 0.4938280683653264
 21
 4.7928878112417301
  0
LINE
  8
0
  6
CONTINUOUS
 62
     7
 10
 13.972729445512835
 20
 18.271789188389238
 11
 15.345324709704494
 21
 19.644384452580898
  0
LINE
  8
0
  6
CONTINUOUS
 62
     7
 10
-0.9569051164491267
 20
 2.9178878112417301
 11
 0.9180948835508733
 21
 4.7928878112417301
  0
LINE
  8
0
  6
CONTINUOUS
 62
     7
 10
 14.128021877853508
 20
 18.002814805544364
 11
 15.500617142045167
 21
 19.375410069736024
  0
LINE
  8
0
  6
CONTINUOUS
 62
     7
 10
-0.5326383012635798
 20
 2.9178878112417301
 11
 1.3423616987364202
 21
 4.7928878112417301
  0
LINE
  8
0
  6
CONTINUOUS
 62
     7
 10
 14.28331431019418
 20
 17.733840422699434
 11
 15.65590957438584
 21
 19.106435686891093
  0
LINE
  8
0
  6
CONTINUOUS
 62
     7
 10
-0.1083714860780329
 20
 2.9178878112417301
 11
 1.7666285139219671
 21
 4.7928878112417301
  0
LINE
  8
0
  6
CONTINUOUS
 62
     7
 10
 14.438606742534796
 20
 17.464866039854503
 11
 15.811202006726456
 21
 18.837461304046162
  0
LINE
  8
0
  6
CONTINUOUS
 62
     7
 10
 0.3158953291075139
 20
 2.9178878112417301
 11
 2.1908953291075139
 21
 4.7928878112417301
  0
LINE
  8
0
  6
CONTINUOUS
 62
     7
 10
 14.593899174875412
 20
 17.195891657009629
 11
 15.966494439067015
 21
 18.568486921201231
  0
LINE
  8
0
  6
CONTINUOUS
 62
     7
 10
 0.7401621442930608
 20
 2.9178878112417301
 11
 2.6151621442930608
 21
 4.7928878112417301
  0
LINE
  8
0
  6
CONTINUOUS
 62
     7
 10
 14.749191607216085
 20
 16.926917274164754
 11
 16.121786871407686
 21
 18.2995125383563
  0
LINE
  8
0
  6
CONTINUOUS
 62
     7
 10
 1.1644289594786077
 20
 2.9178878112417301
 11
 3.0394289594786077
 21
 4.7928878112417301
  0
LINE
  8
0
  6
CONTINUOUS
 62
     7
 10
 14.904484039556644
 20
 16.65794289131971
 11
 16.277079303748302
 21
 18.030538155511369
  0
LINE
  8
0
  6
CONTINUOUS
 62
     7
 10
 1.5886957746641546
 20
 2.9178878112417301
 11
 3.4636957746641546
 21
 4.7928878112417301
  0
LINE
  8
0
  6
CONTINUOUS
 62
     7
 10
 15.05977647189726
 20
 16.388968508474836
 11
 16.432371736088918
 21
 17.761563772666495
  0
LINE
  8
0
  6
CONTINUOUS
 62
     7
 10
 2.0129625898497014
 20
 2.9178878112417301
 11
 3.8879625898497014
 21
 4.7928878112417301
  0
LINE
  8
0
  6
CONTINUOUS
 62
     7
 10
 15.215068904237933
 20
 16.119994125629962
 11
 16.58766416842959
 21
 17.492589389821621
  0
LINE
  8
0
  6
CONTINUOUS
 62
     7
 10
 2.4372294050352483
 20
 2.9178878112417301
 11
 4.3122294050352483
 21
 4.7928878112417301
  0
LINE
  8
0
  6
CONTINUOUS
 62
     7
 10
 15.370361336578606
 20
 15.851019742785031
 11
 16.74295660077015
 21
 17.223615006976576
  0
LINE
  8
0
  6
CONTINUOUS
 62
     7
 10
 2.8614962202207952
 20
 2.9178878112417301
 11
 4.7364962202207952
 21
 4.7928878112417301
  0
LINE
  8
0
  6
CONTINUOUS
 62
     7
 10
 15.525653768919222
 20
 15.5820453599401
 11
 16.898249033110766
 21
 16.954640624131702
  0
LINE
  8
0
  6
CONTINUOUS
 62
     7
 10
 3.2857630354063421
 20
 2.9178878112417301
 11
 5.1607630354063421
 21
 4.7928878112417301
  0
LINE
  8
0
  6
CONTINUOUS
 62
     7
 10
 15.680946201259781
 20
 15.313070977095169
 11
 17.053541465451438
 21
 16.685666241286828
  0
LINE
  8
0
  6
CONTINUOUS
 62
     7
 10
 3.7100298505918889
 20
 2.9178878112417301
 11
 5.5850298505918889
 21
 4.7928878112417301
  0
LINE
  8
0
  6
CONTINUOUS
 62
     7
 10
 15.836238633600454
 20
 15.044096594250238
 11
 17.208833897792111
 21
 16.416691858441897
  0
LINE
  8
0
  6
CONTINUOUS
 62
     7
 10
 4.1342966657774358
 20
 2.9178878112417301
 11
 6.0092966657774358
 21
 4.7928878112417301
  0
LINE
  8
0
  6
CONTINUOUS
 62
     7
 10
 15.99153106594107
 20
 14.775122211405307
 11
 17.364126330132731
 21
 16.147717475596966
  0
LINE
  8
0
  6
CONTINUOUS
 62
     7
 10
 4.5585634809629827
 20
 2.9178878112417301
 11
 6.4335634809629827
 21
 4.7928878112417301
  0
LINE
  8
0
  6
CONTINUOUS
 62
     7
 10
 16.146823498281684
 20
 14.506147828560433
 11
 17.51941876247329
 21
 15.878743092752035
  0
LINE
  8
0
  6
CONTINUOUS
 62
     7
 10
 4.9828302961485296
 20
 2.9178878112417301
 11
 6.8578302961485296
 21
 4.7928878112417301
  0
LINE
  8
0
  6
CONTINUOUS
 62
     7
 10
 16.302115930622357
 20
 14.237173445715559
 11
 17.674711194813963
 21
 15.609768709907105
  0
LINE
  8
0
  6
CONTINUOUS
 62
     7
 10
 5.4070971113340764
 20
 2.9178878112417301
 11
 7.2820971113340764
 21
 4.7928878112417301
  0
LINE
  8
0
  6
CONTINUOUS
 62
     7
 10
 16.457408362962916
 20
 13.968199062870514
 11
 17.830003627154579
 21
 15.340794327062174
  0
LINE
  8
0
  6
CONTINUOUS
 62
     7
 10
 5.8313639265196233
 20
 2.9178878112417301
 11
 7.7063639265196233
 21
 4.7928878112417301
  0
LINE
  8
0
  6
CONTINUOUS
 62
     7
 10
 16.612700795303532
 20
 13.69922468002564
 11
 17.985296059495194
 21
 15.0718199442173
  0
LINE
  8
0
  6
CONTINUOUS
 62
     7
 10
 6.2556307417051702
 20
 2.9178878112417301
 11
 8.1306307417051702
 21
 4.7928878112417301
  0
LINE
  8
0
  6
CONTINUOUS
 62
     7
 10
 16.767993227644205
 20
 13.430250297180766
 11
 18.140588491835867
 21
 14.802845561372425
  0
LINE
  8
0
  6
CONTINUOUS
 62
     7
 10
 6.6798975568907171
 20
 2.9178878112417301
 11
 8.5548975568907171
 21
 4.7928878112417301
  0
LINE
  8
0
  6
CONTINUOUS
 62
     7
 10
 16.923285659984877
 20
 13.161275914335835
 11
 18.295880924176426
 21
 14.533871178527381
  0
LINE
  8
0
  6
CONTINUOUS
 62
     7
 10
 7.1041643720762639
 20
 2.9178878112417301
 11
 8.9791643720762639
 21
 4.7928878112417301
  0
LINE
  8
0
  6
CONTINUOUS
 62
     7
 10
 17.078578092325493
 20
 12.892301531490904
 11
 18.451173356517042
 21
 14.264896795682507
  0
LINE
  8
0
  6
CONTINUOUS
 62
     7
 10
 7.5284311872618108
 20
 2.9178878112417301
 11
 9.4034311872618108
 21
 4.7928878112417301
  0
LINE
  8
0
  6
CONTINUOUS
 62
     7
 10
 17.233870524666056
 20
 12.623327148645973
 11
 18.606465788857715
 21
 13.995922412837633
  0
LINE
  8
0
  6
CONTINUOUS
 62
     7
 10
 7.9526980024473577
 20
 2.9178878112417301
 11
 9.8276980024473577
 21
 4.7928878112417301
  0
LINE
  8
0
  6
CONTINUOUS
 62
     7
 10
 17.389162957006729
 20
 12.354352765801043
 11
 18.761758221198388
 21
 13.726948029992702
  0
LINE
  8
0
  6
CONTINUOUS
 62
     7
 10
 8.3769648176329046
 20
 2.9178878112417301
 11
 10.251964817632905
 21
 4.7928878112417301
  0
LINE
  8
0
  6
CONTINUOUS
 62
     7
 10
 17.544455389347345
 20
 12.085378382956112
 11
 18.91705065353889
 21
 13.457973647147714
  0
LINE
  8
0
  6
CONTINUOUS
 62
     7
 10
 8.8012316328184514
 20
 2.9178878112417301
 11
 10.676231632818451
 21
 4.7928878112417301
  0
LINE
  8
0
  6
CONTINUOUS
 62
     7
 10
 17.699747821687961
 20
 11.816404000111238
 11
 19.072343085879563
 21
 13.18899926430284
  0
LINE
  8
0
  6
CONTINUOUS
 62
     7
 10
 9.2254984480039983
 20
 2.9178878112417301
 11
 11.100498448003998
 21
 4.7928878112417301
  0
LINE
  8
0
  6
CONTINUOUS
 62
     7
 10
 17.855040254028633
 20
 11.547429617266364
 11
 19.227635518220236
 21
 12.920024881457909
  0
LINE
  8
0
  6
CONTINUOUS
 62
     7
 10
 9.6497652631895452
 20
 2.9178878112417301
 11
 11.524765263189545
 21
 4.7928878112417301
  0
LINE
  8
0
  6
CONTINUOUS
 62
     7
 10
 18.010332686369306
 20
 11.278455234421433
 11
 19.382927950560852
 21
 12.651050498612978
  0
LINE
  8
0
  6
CONTINUOUS
 62
     7
 10
 10.074032078375092
 20
 2.9178878112417301
 11
 11.949032078375092
 21
 4.7928878112417301
  0
LINE
  8
0
  6
CONTINUOUS
 62
     7
 10
 18.165625118709809
 20
 11.009480851576445
 11
 19.538220382901468
 21
 12.382076115768104
  0
LINE
  8
0
  6
CONTINUOUS
 62
     7
 10
 10.498298893560639
 20
 2.9178878112417301
 11
 12.373298893560639
 21
 4.7928878112417301
  0
LINE
  8
0
  6
CONTINUOUS
 62
     7
 10
 18.320917551050481
 20
 10.740506468731571
 11
 19.693512815242084
 21
 12.113101732923116
  0
LINE
  8
0
  6
CONTINUOUS
 62
     7
 10
 10.922565708746186
 20
 2.9178878112417301
 11
 12.797565708746186
 21
 4.7928878112417301
  0
LINE
  8
0
  6
CONTINUOUS
 62
     7
 10
 18.476209983391154
 20
 10.47153208588664
 11
 19.8488052475827
 21
 11.844127350078185
  0
LINE
  8
0
  6
CONTINUOUS
 62
     7
 10
 11.346832523931733
 20
 2.9178878112417301
 11
 13.221832523931733
 21
 4.7928878112417301
  0
LINE
  8
0
  6
CONTINUOUS
 62
     7
 10
 18.63150241573177
 20
 10.202557703041709
 11
 20.004097679923316
 21
 11.575152967233311
  0
LINE
  8
0
  6
CONTINUOUS
 62
     7
 10
 11.77109933911728
 20
 2.9178878112417301
 11
 13.64609933911728
 21
 4.7928878112417301
  0
LINE
  8
0
  6
CONTINUOUS
 62
     7
 10
 18.786794848072386
 20
 9.9335833201968349
 11
 20.159390112263988
 21
 11.306178584388437
  0
LINE
  8
0
  6
CONTINUOUS
 62
     7
 10
 12.195366154302826
 20
 2.9178878112417301
 11
 14.070366154302826
 21
 4.7928878112417301
  0
LINE
  8
0
  6
CONTINUOUS
 62
     7
 10
 18.942087280413002
 20
 9.6646089373518471
 11
 20.314682544604661
 21
 11.037204201543506
  0
LINE
  8
0
  6
CONTINUOUS
 62
     7
 10
 12.619632969488373
 20
 2.9178878112417301
 11
 14.494632969488373
 21
 4.7928878112417301
  0
LINE
  8
0
  6
CONTINUOUS
 62
     7
 10
 19.097379712753618
 20
 9.3956345545069162
 11
 20.469974976945164
 21
 10.768229818698519
  0
LINE
  8
0
  6
CONTINUOUS
 62
     7
 10
 13.04389978467392
 20
 2.9178878112417301
 11
 14.91889978467392
 21
 4.7928878112417301
  0
LINE
  8
0
  6
CONTINUOUS
 62
     7
 10
 19.252672145094234
 20
 9.1266601716620421
 11
 20.625267409285836
 21
 10.499255435853645
  0
LINE
  8
0
  6
CONTINUOUS
 62
     7
 10
 13.468166599859467
 20
 2.9178878112417301
 11
 15.343166599859467
 21
 4.7928878112417301
  0
LINE
  8
0
  6
CONTINUOUS
 62
     7
 10
 19.407964577434907
 20
 8.8576857888171681
 11
 20.780559841626509
 21
 10.230281053008714
  0
LINE
  8
0
  6
CONTINUOUS
 62
     7
 10
 13.892433415045014
 20
 2.9178878112417301
 11
 15.767433415045014
 21
 4.7928878112417301
  0
LINE
  8
0
  6
CONTINUOUS
 62
     7
 10
 19.56325700977558
 20
 8.5887114059722371
 11
 20.935852273967125
 21
 9.9613066701637827
  0
LINE
  8
0
  6
CONTINUOUS
 62
     7
 10
 14.316700230230561
 20
 2.9178878112417301
 11
 16.191700230230559
 21
 4.7928878112417301
  0
LINE
  8
0
  6
CONTINUOUS
 62
     7
 10
 19.718549442116082
 20
 8.3197370231272494
 11
 21.091144706307741
 21
 9.6923322873189086
  0
LINE
  8
0
  6
CONTINUOUS
 62
     7
 10
 14.740967045416108
 20
 2.9178878112417301
 11
 16.615967045416106
 21
 4.7928878112417301
  0
LINE
  8
0
  6
CONTINUOUS
 62
     7
 10
 19.873841874456755
 20
 8.0507626402823753
 11
 21.246437138648357
 21
 9.4233579044739209
  0
LINE
  8
0
  6
CONTINUOUS
 62
     7
 10
 15.165233860601655
 20
 2.9178878112417301
 11
 17.040233860601653
 21
 4.7928878112417301
  0
LINE
  8
0
  6
CONTINUOUS
 62
     7
 10
 20.029134306797427
 20
 7.7817882574374444
 11
 21.401729570988973
 21
 9.1543835216289899
  0
LINE
  8
0
  6
CONTINUOUS
 62
     7
 10
 15.589500675787201
 20
 2.9178878112417301
 11
 17.464500675787203
 21
 4.7928878112417301
  0
LINE
  8
0
  6
CONTINUOUS
 62
     7
 10
 20.184426739138043
 20
 7.5128138745925135
 11
 21.557022003329589
 21
 8.8854091387841159
  0
LINE
  8
0
  6
CONTINUOUS
 62
     7
 10
 16.013767490972747
 20
 2.9178878112417301
 11
 17.88876749097275
 21
 4.7928878112417301
  0
LINE
  8
0
  6
CONTINUOUS
 62
     7
 10
 20.339719171478659
 20
 7.2438394917476394
 11
 21.712314435670262
 21
 8.6164347559392418
  0
LINE
  8
0
  6
CONTINUOUS
 62
     7
 10
 16.438034306158293
 20
 2.9178878112417301
 11
 18.313034306158297
 21
 4.7928878112417301
  0
LINE
  8
0
  6
CONTINUOUS
 62
     7
 10
 20.495011603819275
 20
 6.9748651089026517
 11
 21.867606868010935
 21
 8.3474603730943109
  0
LINE
  8
0
  6
CONTINUOUS
 62
     7
 10
 16.86230112134384
 20
 2.9178878112417301
 11
 18.737301121343844
 21
 4.7928878112417301
  0
LINE
  8
0
  6
CONTINUOUS
 62
     7
 10
 20.650304036159891
 20
 6.7058907260577207
 11
 22.022899300351437
 21
 8.0784859902493231
  0
LINE
  8
0
  6
CONTINUOUS
 62
     7
 10
 17.286567936529391
 20
 2.9178878112417301
 11
 19.161567936529391
 21
 4.7928878112417301
  0
LINE
  8
0
  6
CONTINUOUS
 62
     7
 10
 20.805596468500507
 20
 6.4369163432128467
 11
 22.17819173269211
 21
 7.8095116074044491
  0
LINE
  8
0
  6
CONTINUOUS
 62
     7
 10
 17.710834751714938
 20
 2.9178878112417301
 11
 19.585834751714938
 21
 4.7928878112417301
  0
LINE
  8
0
  6
CONTINUOUS
 62
     7
 10
 20.96088890084118
 20
 6.1679419603679726
 11
 22.333484165032782
 21
 7.5405372245595181
  0
LINE
  8
0
  6
CONTINUOUS
 62
     7
 10
 18.135101566900484
 20
 2.9178878112417301
 11
 20.010101566900484
 21
 4.7928878112417301
  0
LINE
  8
0
  6
CONTINUOUS
 62
     7
 10
 21.116181333181853
 20
 5.8989675775230417
 11
 22.488776597373398
 21
 7.2715628417145872
  0
LINE
  8
0
  6
CONTINUOUS
 62
     7
 10
 18.559368382086031
 20
 2.9178878112417301
 11
 20.434368382086031
 21
 4.7928878112417301
  0
LINE
  8
0
  6
CONTINUOUS
 62
     7
 10
 21.271473765522469
 20
 5.6299931946781108
 11
 22.644069029714014
 21
 7.0025884588697132
  0
LINE
  8
0
  6
CONTINUOUS
 62
     7
 10
 18.983635197271578
 20
 2.9178878112417301
 11
 20.858635197271578
 21
 4.7928878112417301
  0
LINE
  8
0
  6
CONTINUOUS
 62
     7
 10
 21.426766197863028
 20
 5.3610188118331799
 11
 22.79936146205463
 21
 6.7336140760247254
  0
LINE
  8
0
  6
CONTINUOUS
 62
     7
 10
 19.407902012457125
 20
 2.9178878112417301
 11
 21.282902012457125
 21
 4.7928878112417301
  0
LINE
  8
0
  6
CONTINUOUS
 62
     7
 10
 21.582058630203701
 20
 5.0920444289882489
 11
 22.954653894395246
 21
 6.4646396931797945
  0
LINE
  8
0
  6
CONTINUOUS
 62
     7
 10
 19.832168827642672
 20
 2.9178878112417301
 11
 21.707168827642672
 21
 4.7928878112417301
  0
LINE
  8
0
  6
CONTINUOUS
 62
     7
 10
 21.737351062544317
 20
 4.823070046143318
 11
 23.109946326735862
 21
 6.1956653103349204
  0
LINE
  8
0
  6
CONTINUOUS
 62
     7
 10
 20.256435642828219
 20
 2.9178878112417301
 11
 23.265238759076535
 21
 5.9266909274900463
  0
LINE
  8
0
  6
CONTINUOUS
 62
     7
 10
 20.680702458013766
 20
 2.9178878112417301
 11
 23.419137477142581
 21
 5.6563228303706019
  0
LINE
  8
0
  6
CONTINUOUS
 62
     7
 10
 21.104969273199313
 20
 2.9178878112417301
 11
 23.543185262824718
 21
 5.3561038008670785
  0
LINE
  8
0
  6
CONTINUOUS
 62
     7
 10
 21.529236088384859
 20
 2.9178878112417301
 11
 23.617596042282823
 21
 5.0062477651397508
  0
LINE
  8
0
  6
CONTINUOUS
 62
     7
 10
 21.96536491519802
 20
 2.9297498228694003
 11
 23.617911429204948
 21
 4.582296336876329
  0
LINE
  8
0
  6
CONTINUOUS
 62
     7
 10
 22.55900161176427
 20
 3.0991197042501604
 11
 23.448541547824302
 21
 3.9886596403100221
  0
LINE
  8
0
  6
CONTINUOUS
 62
     3
 10
 3.9893987303522298
 20
 16.034854733291997
 11
 8.9507670545785576
 21
 18.524037613803973
  0
LINE
  8
0
  6
CONTINUOUS
 62
     7
 10
 6.3415689883266513
 20
 15.063821130776109
 11
 8.5924435106729451
 21
 17.314695653122403
  0
LINE
  8
0
  6
CONTINUOUS
 62
     7
 10
 6.4222349901219449
 20
 15.483900584719908
 11
 8.7353544378932728
 21
 17.797020032491179
  0
LINE
  8
0
  6
CONTINUOUS
 62
     7
 10
 6.1908983009578495
 20
 15.591977347704148
 11
 8.8782653651137142
 21
 18.279344411860013
  0
LINE
  8
0
  6
CONTINUOUS
 62
     7
 10
 5.4635130946728285
 20
 15.204005593567633
 11
 8.6151734458140599
 21
 18.35566594470875
  0
LINE
  8
0
  6
CONTINUOUS
 62
     7
 10
 4.7361278883878075
 20
 14.816033839431061
 11
 7.9340129145168365
 21
 18.01391886556009
  0
LINE
  8
0
  6
CONTINUOUS
 62
     7
 10
 4.0087426821027865
 20
 14.428062085294432
 11
 7.2528523832197269
 21
 17.672171786411315
  0
LINE
  8
0
  6
CONTINUOUS
 62
     7
 10
 6.260902986531244
 20
 14.643741676832253
 11
 8.4495325834525037
 21
 16.832371273753512
  0
LINE
  8
0
  6
CONTINUOUS
 62
     7
 10
 6.180236984735723
 20
 14.223662222888453
 11
 8.3066216562320623
 21
 16.350046894384679
  0
LINE
  8
0
  6
CONTINUOUS
 62
     7
 10
 6.0995709829404294
 20
 13.803582768944541
 11
 8.1637107290116209
 21
 15.867722515015846
  0
LINE
  8
0
  6
CONTINUOUS
 62
     7
 10
 6.0189049811450221
 20
 13.383503315000741
 11
 8.0207998017912931
 21
 15.385398135646955
  0
LINE
  8
0
  6
CONTINUOUS
 62
     7
 10
 5.9382389793495012
 20
 12.963423861056828
 11
 7.8778888745708517
 21
 14.903073756278179
  0
LINE
  8
0
  6
CONTINUOUS
 62
     7
 10
 5.8575729775542076
 20
 12.543344407113029
 11
 7.7349779473504103
 21
 14.420749376909345
  0
LINE
  8
0
  6
CONTINUOUS
 62
     7
 10
 5.7769069757588003
 20
 12.123264953169173
 11
 7.5920670201300826
 21
 13.938424997540455
  0
LINE
  8
0
  6
CONTINUOUS
 62
     7
 10
 5.6962409739632793
 20
 11.703185499225373
 11
 7.4491560929096412
 21
 13.456100618171565
  0
LINE
  8
0
  6
CONTINUOUS
 62
     7
 10
 5.6155749721679857
 20
 11.283106045281517
 11
 7.3062451656891998
 21
 12.973776238802731
  0
LINE
  8
0
  6
CONTINUOUS
 62
     7
 10
 5.5349089703725785
 20
 10.863026591337604
 11
 7.1633342384687584
 21
 12.491451859433955
  0
LINE
  8
0
  6
CONTINUOUS
 62
     7
 10
 4.0153430503051712
 20
 9.6828741234187028
 11
 4.1013125881438217
 21
 9.7688436612573533
  0
LINE
  8
0
  6
CONTINUOUS
 62
     7
 10
 4.1197779586586538
 20
 9.4478955796236797
 11
 4.2993037685636981
 21
 9.6274213895287808
  0
LINE
  8
0
  6
CONTINUOUS
 62
     7
 10
 4.2242128670120227
 20
 9.2129170358286565
 11
 4.4972949489836882
 21
 9.485999117800322
  0
LINE
  8
0
  6
CONTINUOUS
 62
     7
 10
 5.4542429685771712
 20
 10.442947137393805
 11
 7.0204233112484307
 21
 12.009127480065064
  0
LINE
  8
0
  6
CONTINUOUS
 62
     7
 10
 5.3735769667817639
 20
 10.022867683450006
 11
 6.8775123840279893
 21
 11.526803100696231
  0
LINE
  8
0
  6
CONTINUOUS
 62
     7
 10
 5.2929109649863566
 20
 9.6027882295060927
 11
 6.7346014568076615
 21
 11.044478721327454
  0
LINE
  8
0
  6
CONTINUOUS
 62
     7
 10
 5.2122449631909493
 20
 9.1827087755622365
 11
 6.5916905295872201
 21
 10.562154341958507
  0
LINE
  8
0
  6
CONTINUOUS
 62
     3
 10
 6.4787940730362497
 20
 24.567101754388734
 11
 7.6073583638653535
 21
 24.515258378081246
  0
LINE
  8
0
  6
CONTINUOUS
 62
     7
 10
 4.0484176396468801
 20
 21.595419537955724
 11
 6.9963257649848973
 21
 24.543327663293741
  0
LINE
  8
0
  6
CONTINUOUS
 62
     7
 10
 4.2079285782141032
 20
 22.094343928671453
 11
 6.6718193147252922
 21
 24.558234665182528
  0
LINE
  8
0
  6
CONTINUOUS
 62
     3
 10
 5.4006390730362117
 20
 25.824949254388873
 11
 6.4787940730362497
 21
 24.567101754388734
  0
LINE
  8
0
  6
CONTINUOUS
 62
     7
 10
 5.0054832710506734
 20
 24.588965882250211
 11
 5.7887133361839123
 21
 25.372195947383279
  0
LINE
  8
0
  6
CONTINUOUS
 62
     7
 10
 5.1649942096180101
 20
 25.087890272965939
 11
 5.6320609736537453
 21
 25.554957037001731
  0
LINE
  8
0
  6
CONTINUOUS
 62
     7
 10
 5.3245051481853469
 20
 25.586814663681725
 11
 5.4754086111238056
 21
 25.737718126620127
  0
LINE
  8
0
  6
CONTINUOUS
 62
     7
 10
 4.3674395167814399
 20
 22.593268319387182
 11
 6.4153227863040119
 21
 24.641151588909754
  0
LINE
  8
0
  6
CONTINUOUS
 62
     7
 10
 4.5269504553487767
 20
 23.092192710102911
 11
 6.2586704237739585
 21
 24.823912678528092
  0
LINE
  8
0
  6
CONTINUOUS
 62
     7
 10
 4.6864613939161135
 20
 23.591117100818753
 11
 6.1020180612439052
 21
 25.006673768146545
  0
LINE
  8
0
  6
CONTINUOUS
 62
     7
 10
 4.8459723324834503
 20
 24.090041491534482
 11
 5.9453656987138519
 21
 25.189434857764883
  0
LINE
  8
0
  6
CONTINUOUS
 62
     3
 10
 3.9893987303522298
 20
 16.034854733291997
 11
 7.6073583638653535
 21
 24.515258378081246
  0
LINE
  8
0
  6
CONTINUOUS
 62
     7
 10
 3.8889067010795433
 20
 21.096495147239995
 11
 7.3208322152445024
 21
 24.528420661404954
  0
LINE
  8
0
  6
CONTINUOUS
 62
     7
 10
 3.7293957625122065
 20
 20.597570756524266
 11
 7.5778004873726221
 21
 24.445975481384625
  0
LINE
  8
0
  6
CONTINUOUS
 62
     7
 10
 3.5698848239449834
 20
 20.098646365808538
 11
 7.3252558480725956
 21
 23.854017389936093
  0
LINE
  8
0
  6
CONTINUOUS
 62
     7
 10
 3.4103738853776466
 20
 19.599721975092695
 11
 7.072711208772569
 21
 23.262059298487618
  0
LINE
  8
0
  6
CONTINUOUS
 62
     3
 10
 3.9193770545784563
 20
 9.8987976138040672
 11
 5.1772245545784816
 21
 9.0003351138040735
  0
LINE
  8
0
  6
CONTINUOUS
 62
     3
 10
 5.1772245545784816
 20
 9.0003351138040735
 11
 6.4717544391031314
 21
 15.741780021218535
  0
LINE
  8
0
  6
CONTINUOUS
 62
     3
 10
 7.8726120545786333
 20
 9.8987976138038967
 11
 6.0756870545784185
 21
 8.8206426138039724
  0
LINE
  8
0
  6
CONTINUOUS
 62
     3
 10
 6.0756870545784185
 20
 8.8206426138039724
 11
 8.9507670545785576
 21
 18.524037613803973
  0
LINE
  8
0
  6
CONTINUOUS
 62
     7
 10
 4.3286477753652779
 20
 8.9779384920335197
 11
 4.6952861294035646
 21
 9.3445768460718064
  0
LINE
  8
0
  6
CONTINUOUS
 62
     7
 10
 4.4330826837186468
 20
 8.7429599482384965
 11
 4.8932773098235547
 21
 9.2031545743432339
  0
LINE
  8
0
  6
CONTINUOUS
 62
     7
 10
 4.5375175920721293
 20
 8.5079814044433597
 11
 5.0912684902434311
 21
 9.0617323026147751
  0
LINE
  8
0
  6
CONTINUOUS
 62
     7
 10
 4.6419525004253845
 20
 8.2730028606483366
 11
 6.4487796023667787
 21
 10.079829962589731
  0
LINE
  8
0
  6
CONTINUOUS
 62
     7
 10
 4.7463874087787534
 20
 8.0380243168533134
 11
 6.305868675146451
 21
 9.5975055832208973
  0
LINE
  8
0
  6
CONTINUOUS
 62
     7
 10
 4.850822317132236
 20
 7.8030457730582334
 11
 6.1629577479260096
 21
 9.115181203852007
  0
LINE
  8
0
  6
CONTINUOUS
 62
     7
 10
 4.9552572254854912
 20
 7.5680672292631535
 11
 6.4060509431983181
 21
 9.0188609469758099
  0
LINE
  8
0
  6
CONTINUOUS
 62
     7
 10
 5.0596921338388601
 20
 7.3330886854680735
 11
 7.2545845735690708
 21
 9.5279811251982274
  0
LINE
  8
0
  6
CONTINUOUS
 62
     7
 10
 5.164127042192229
 20
 7.0981101416729935
 11
 7.549903445472717
 21
 9.4838865449534815
  0
LINE
  8
0
  6
CONTINUOUS
 62
     3
 10
 5.356917054578469
 20
 6.6643326138039534
 11
 7.8726120545786333
 21
 9.8987976138038967
  0
LINE
  8
0
  6
CONTINUOUS
 62
     3
 10
 5.356917054578469
 20
 6.6643326138039534
 11
 3.9193770545784563
 21
 9.8987976138040672
  0
LINE
  8
0
  6
CONTINUOUS
 62
     7
 10
 5.2685619505455978
 20
 6.8631315978779135
 11
 6.3619563629525491
 21
 7.9565260102848647
  0
LINE
  8
0
  6
CONTINUOUS
 62
     7
 10
 3.2813574758178792
 20
 14.04009033115786
 11
 6.5716918519225036
 21
 17.330424707262598
  0
LINE
  8
0
  6
CONTINUOUS
 62
     7
 10
 2.5539722695328582
 20
 13.652118577021344
 11
 5.8905313206252803
 21
 16.988677628113937
  0
LINE
  8
0
  6
CONTINUOUS
 62
     7
 10
 2.7723301311084132
 20
 17.604024412229723
 11
 6.062532651572349
 21
 20.894226932693716
  0
LINE
  8
0
  6
CONTINUOUS
 62
     7
 10
 2.93184106967575
 20
 18.102948802945509
 11
 6.3150772908724893
 21
 21.486185024142248
  0
LINE
  8
0
  6
CONTINUOUS
 62
     7
 10
 2.4533082539737396
 20
 16.606175630798266
 11
 5.5574433729722958
 21
 19.710310749796708
  0
LINE
  8
0
  6
CONTINUOUS
 62
     7
 10
 2.6128191925410764
 20
 17.105100021513994
 11
 5.8099880122723224
 21
 20.30226884124524
  0
LINE
  8
0
  6
CONTINUOUS
 62
     7
 10
 2.1342863768391798
 20
 15.608326849366808
 11
 5.052354094372129
 21
 18.526394566899814
  0
LINE
  8
0
  6
CONTINUOUS
 62
     7
 10
 2.2937973154065165
 20
 16.107251240082537
 11
 5.3048987336721556
 21
 19.118352658348233
  0
LINE
  8
0
  6
CONTINUOUS
 62
     7
 10
 1.8265870632478372
 20
 13.264146822884829
 11
 5.2093707893281707
 21
 16.646930548965162
  0
LINE
  8
0
  6
CONTINUOUS
 62
     3
 10
 1.2940112303521918
 20
 12.980082233291984
 11
 6.4717544391031314
 21
 15.741780021218535
  0
LINE
  8
0
  6
CONTINUOUS
 62
     7
 10
 1.3367316840026096
 20
 13.113704895788107
 11
 4.528210258031061
 21
 16.305183469816445
  0
LINE
  8
0
  6
CONTINUOUS
 62
     7
 10
 1.4962426225699463
 20
 13.612629286503836
 11
 4.0421755371720227
 21
 16.158562201105855
  0
LINE
  8
0
  6
CONTINUOUS
 62
     7
 10
 1.6557535611372831
 20
 14.111553677219565
 11
 4.2947201764720493
 21
 16.750520292554388
  0
LINE
  8
0
  6
CONTINUOUS
 62
     7
 10
 3.2508629468104235
 20
 19.100797584376966
 11
 6.8201665694725424
 21
 22.670101207039199
  0
LINE
  8
0
  6
CONTINUOUS
 62
     7
 10
 3.0913520082429731
 20
 18.601873193661238
 11
 6.5676219301724021
 21
 22.078143115590667
  0
LINE
  8
0
  6
CONTINUOUS
 62
     7
 10
 1.8152644997045062
 20
 14.610478067935293
 11
 4.5472648157720759
 21
 17.342478384002863
  0
LINE
  8
0
  6
CONTINUOUS
 62
     7
 10
 1.9747754382719567
 20
 15.109402458651079
 11
 4.7998094550721024
 21
 17.934436475451282
  0
LINE
  8
0
  6
CONTINUOUS
 62
     3
 10
 1.2940112303521918
 20
 12.980082233291984
 11
 5.4006390730362117
 21
 25.824949254388873
  0
ENDBLK
  8
0
  0
BLOCK
  8
0
  2
CADWIN-G1
 70
    0
 10
0.0
 20
0.0
  0
LINE
  8
0
  6
CONTINUOUS
 62
     3
 10
-17.167445536282568
 20
 43.874457321633571
 11
-6.832509045743631
 21
 43.874457321633571
  0
ARC
  8
0
  6
CONTINUOUS
 62
     3
 10
-17.167445536282568
 20
 44.499457321633571
 40
 0.625
 50
 150.00000255872399
 51
-90.000001535234532
  0
ARC
  8
0
  6
CONTINUOUS
 62
     3
 10
-6.832509045743631
 20
 44.499457321633571
 40
 0.625
 50
-90.000001535234816
 51
 30.000000511744783
  0
LINE
  8
0
  6
CONTINUOUS
 62
     3
 10
-17.708711413647816
 20
 44.811957321633571
 11
-12.541243168378369
 21
 53.762274868939045
  0
LINE
  8
0
  6
CONTINUOUS
 62
     3
 10
-11.458711413647816
 20
 53.762274868939045
 11
-6.2912431683784114
 21
 44.811957321633571
  0
ARC
  8
0
  6
CONTINUOUS
 62
     3
 10
-11.999977291013121
 20
 53.449774868939045
 40
 0.625
 50
 30.000000511744894
 51
 150.00000255872422
  0
LINE
  8
0
  6
CONTINUOUS
 62
     3
 10
-11.999977291013121
 20
 53.449774868939045
 11
-17.167445536282568
 21
 44.499457321633571
  0
LINE
  8
0
  6
CONTINUOUS
 62
     3
 10
-17.167445536282568
 20
 44.499457321633571
 11
-6.832509045743631
 21
 44.499457321633571
  0
LINE
  8
0
  6
CONTINUOUS
 62
     3
 10
-11.999977291013121
 20
 53.449774868939045
 11
-6.832509045743631
 21
 44.499457321633571
  0
LINE
  8
0
  6
CONTINUOUS
 62
     7
 10
-16.100136939965349
 20
 43.874457321633571
 11
-15.475136939965349
 21
 44.499457321633571
  0
LINE
  8
0
  6
CONTINUOUS
 62
     7
 10
-9.9959304104847995
 20
 49.978663851114135
 11
-9.5383986557542464
 21
 50.436195605844659
  0
LINE
  8
0
  6
CONTINUOUS
 62
     7
 10
-16.241559211693865
 20
 43.874457321633571
 11
-15.616559211693865
 21
 44.499457321633571
  0
LINE
  8
0
  6
CONTINUOUS
 62
     7
 10
-10.047694554598319
 20
 50.068321978729102
 11
-9.5901627998677661
 21
 50.525853733459655
  0
LINE
  8
0
  6
CONTINUOUS
 62
     7
 10
-16.38298148342238
 20
 43.874457321633571
 11
-15.75798148342238
 21
 44.499457321633571
  0
LINE
  8
0
  6
CONTINUOUS
 62
     7
 10
-10.099458698711896
 20
 50.15798010634407
 11
-9.6419269439813426
 21
 50.615511861074623
  0
LINE
  8
0
  6
CONTINUOUS
 62
     7
 10
-16.524403755150896
 20
 43.874457321633571
 11
-15.899403755150896
 21
 44.499457321633571
  0
LINE
  8
0
  6
CONTINUOUS
 62
     7
 10
-10.151222842825415
 20
 50.247638233959037
 11
-9.6936910880948624
 21
 50.70516998868959
  0
LINE
  8
0
  6
CONTINUOUS
 62
     7
 10
-16.665826026879412
 20
 43.874457321633571
 11
-16.040826026879412
 21
 44.499457321633571
  0
LINE
  8
0
  6
CONTINUOUS
 62
     7
 10
-10.202986986938992
 20
 50.337296361574005
 11
-9.7454552322084389
 21
 50.794828116304558
  0
LINE
  8
0
  6
CONTINUOUS
 62
     7
 10
-16.807248298607927
 20
 43.874457321633571
 11
-16.182248298607927
 21
 44.499457321633571
  0
LINE
  8
0
  6
CONTINUOUS
 62
     7
 10
-10.254751131052512
 20
 50.426954489189001
 11
-9.7972193763219586
 21
 50.884486243919525
  0
LINE
  8
0
  6
CONTINUOUS
 62
     7
 10
-16.948670570336443
 20
 43.874457321633571
 11
-16.323670570336443
 21
 44.499457321633571
  0
LINE
  8
0
  6
CONTINUOUS
 62
     7
 10
-10.306515275166031
 20
 50.516612616803968
 11
-9.8489835204354783
 21
 50.974144371534521
  0
LINE
  8
0
  6
CONTINUOUS
 62
     7
 10
-17.090092842064958
 20
 43.874457321633571
 11
-16.465092842064958
 21
 44.499457321633571
  0
LINE
  8
0
  6
CONTINUOUS
 62
     7
 10
-10.358279419279594
 20
 50.606270744418936
 11
-9.9007476645490549
 21
 51.063802499149489
  0
LINE
  8
0
  6
CONTINUOUS
 62
     7
 10
-17.228523919386245
 20
 43.877448516040829
 11
-16.606515113793474
 21
 44.499457321633571
  0
LINE
  8
0
  6
CONTINUOUS
 62
     7
 10
-10.410043563393142
 20
 50.695928872033903
 11
-9.9525118086625746
 21
 51.153460626764456
  0
LINE
  8
0
  6
CONTINUOUS
 62
     7
 10
-17.346685067222491
 20
 43.900709639933069
 11
-16.74793738552199
 21
 44.499457321633571
  0
LINE
  8
0
  6
CONTINUOUS
 62
     7
 10
-10.46180770750669
 20
 50.785586999648871
 11
-10.004275952776151
 21
 51.243118754379424
  0
LINE
  8
0
  6
CONTINUOUS
 62
     7
 10
-17.447902158422206
 20
 43.940914820461899
 11
-16.889359657250505
 21
 44.499457321633571
  0
LINE
  8
0
  6
CONTINUOUS
 62
     7
 10
-10.513571851620238
 20
 50.875245127263838
 11
-10.056040096889671
 21
 51.332776881994391
  0
LINE
  8
0
  6
CONTINUOUS
 62
     7
 10
-17.535741261521363
 20
 43.994497989091229
 11
-17.030781928979021
 21
 44.499457321633571
  0
LINE
  8
0
  6
CONTINUOUS
 62
     7
 10
-10.565335995733758
 20
 50.964903254878834
 11
-10.107804241003191
 21
 51.422435009609387
  0
LINE
  8
0
  6
CONTINUOUS
 62
     7
 10
-17.611760584656022
 20
 44.059900937685114
 11
-17.160945079789965
 21
 44.510716442551143
  0
LINE
  8
0
  6
CONTINUOUS
 62
     7
 10
-10.617100139847306
 20
 51.054561382493802
 11
-10.159568385116767
 21
 51.512093137224355
  0
LINE
  8
0
  6
CONTINUOUS
 62
     7
 10
-17.676392193097083
 20
 44.136691600972568
 11
-16.967758663947929
 21
 44.845325130121694
  0
LINE
  8
0
  6
CONTINUOUS
 62
     7
 10
-10.668864283960854
 20
 51.144219510108769
 11
-10.211332529230287
 21
 51.601751264839322
  0
LINE
  8
0
  6
CONTINUOUS
 62
     7
 10
-17.729139373618292
 20
 44.225366692179875
 11
-16.774572248105866
 21
 45.179933817692273
  0
LINE
  8
0
  6
CONTINUOUS
 62
     7
 10
-10.720628428074402
 20
 51.233877637723737
 11
-10.263096673343863
 21
 51.69140939245429
  0
LINE
  8
0
  6
CONTINUOUS
 62
     7
 10
-17.768348079736764
 20
 44.327580257789919
 11
-16.581385832263802
 21
 45.514542505262853
  0
LINE
  8
0
  6
CONTINUOUS
 62
     7
 10
-10.77239257218795
 20
 51.323535765338704
 11
-10.314860817457383
 21
 51.781067520069257
  0
LINE
  8
0
  6
CONTINUOUS
 62
     7
 10
-17.790249179223817
 20
 44.447101430031381
 11
-16.388199416421738
 21
 45.849151192833432
  0
LINE
  8
0
  6
CONTINUOUS
 62
     7
 10
-10.82415671630147
 20
 51.4131938929537
 11
-10.366624961570917
 21
 51.870725647684253
  0
LINE
  8
0
  6
CONTINUOUS
 62
     7
 10
-17.785340407674308
 20
 44.593432473309377
 11
-16.195013000579674
 21
 46.183759880404011
  0
LINE
  8
0
  6
CONTINUOUS
 62
     7
 10
-10.875920860415018
 20
 51.502852020568668
 11
-10.418389105684465
 21
 51.960383775299221
  0
LINE
  8
0
  6
CONTINUOUS
 62
     7
 10
-17.709355091492906
 20
 44.810840061219324
 11
-16.001826584737611
 21
 46.518368567974591
  0
LINE
  8
0
  6
CONTINUOUS
 62
     7
 10
-10.927685004528566
 20
 51.592510148183635
 11
-10.470153249798013
 21
 52.050041902914188
  0
LINE
  8
0
  6
CONTINUOUS
 62
     7
 10
-17.516171923626072
 20
 45.145445500814645
 11
-15.808640168895575
 21
 46.852977255545142
  0
LINE
  8
0
  6
CONTINUOUS
 62
     7
 10
-10.979449148642114
 20
 51.682168275798603
 11
-10.521917393911561
 21
 52.139700030529156
  0
LINE
  8
0
  6
CONTINUOUS
 62
     7
 10
-17.322985507784008
 20
 45.480054188385225
 11
-15.615453753053512
 21
 47.187585943115721
  0
LINE
  8
0
  6
CONTINUOUS
 62
     7
 10
-11.031213292755663
 20
 51.77182640341357
 11
-10.573681538025081
 21
 52.229358158144152
  0
LINE
  8
0
  6
CONTINUOUS
 62
     7
 10
-17.129799091941944
 20
 45.814662875955804
 11
-15.422267337211448
 21
 47.5221946306863
  0
LINE
  8
0
  6
CONTINUOUS
 62
     7
 10
-11.082977436869182
 20
 51.861484531028566
 11
-10.625445682138629
 21
 52.319016285759119
  0
LINE
  8
0
  6
CONTINUOUS
 62
     7
 10
-16.93661267609988
 20
 46.149271563526383
 11
-15.229080921369384
 21
 47.85680331825688
  0
LINE
  8
0
  6
CONTINUOUS
 62
     7
 10
-11.13474158098273
 20
 51.951142658643533
 11
-10.677209826252177
 21
 52.408674413374086
  0
LINE
  8
0
  6
CONTINUOUS
 62
     7
 10
-16.743426260257817
 20
 46.483880251096963
 11
-15.03589450552732
 21
 48.191412005827459
  0
LINE
  8
0
  6
CONTINUOUS
 62
     7
 10
-11.186505725096278
 20
 52.040800786258501
 11
-10.728973970365725
 21
 52.498332540989054
  0
LINE
  8
0
  6
CONTINUOUS
 62
     7
 10
-16.550239844415781
 20
 46.818488938667514
 11
-14.842708089685285
 21
 48.52602069339801
  0
LINE
  8
0
  6
CONTINUOUS
 62
     7
 10
-11.238269869209827
 20
 52.130458913873468
 11
-10.780738114479274
 21
 52.587990668604021
  0
LINE
  8
0
  6
CONTINUOUS
 62
     7
 10
-16.357053428573717
 20
 47.153097626238093
 11
-14.649521673843221
 21
 48.860629380968589
  0
LINE
  8
0
  6
CONTINUOUS
 62
     7
 10
-11.290034013323375
 20
 52.220117041488436
 11
-10.832502258592793
 21
 52.677648796219017
  0
LINE
  8
0
  6
CONTINUOUS
 62
     7
 10
-16.163867012731654
 20
 47.487706313808673
 11
-14.456335258001157
 21
 49.195238068539169
  0
LINE
  8
0
  6
CONTINUOUS
 62
     7
 10
-11.341798157436894
 20
 52.309775169103432
 11
-10.884266402706341
 21
 52.767306923833985
  0
LINE
  8
0
  6
CONTINUOUS
 62
     7
 10
-15.97068059688959
 20
 47.822315001379252
 11
-14.263148842159094
 21
 49.529846756109748
  0
LINE
  8
0
  6
CONTINUOUS
 62
     7
 10
-11.393562301550443
 20
 52.399433296718399
 11
-10.93603054681989
 21
 52.856965051448952
  0
LINE
  8
0
  6
CONTINUOUS
 62
     7
 10
-15.777494181047526
 20
 48.156923688949831
 11
-14.06996242631703
 21
 49.864455443680328
  0
LINE
  8
0
  6
CONTINUOUS
 62
     7
 10
-11.445326445663991
 20
 52.489091424333367
 11
-10.987794690933438
 21
 52.94662317906392
  0
LINE
  8
0
  6
CONTINUOUS
 62
     7
 10
-15.584307765205491
 20
 48.491532376520382
 11
-13.876776010474995
 21
 50.199064131250879
  0
LINE
  8
0
  6
CONTINUOUS
 62
     7
 10
-11.497090589777539
 20
 52.578749551948334
 11
-11.039558835046986
 21
 53.036281306678887
  0
LINE
  8
0
  6
CONTINUOUS
 62
     7
 10
-15.391121349363427
 20
 48.826141064090962
 11
-13.683589594632931
 21
 50.533672818821458
  0
LINE
  8
0
  6
CONTINUOUS
 62
     7
 10
-11.548854733891087
 20
 52.668407679563302
 11
-11.091322979160505
 21
 53.125939434293883
  0
LINE
  8
0
  6
CONTINUOUS
 62
     7
 10
-15.197934933521363
 20
 49.160749751661541
 11
-13.490403178790867
 21
 50.868281506392037
  0
LINE
  8
0
  6
CONTINUOUS
 62
     7
 10
-11.600618878004635
 20
 52.758065807178269
 11
-11.143087123274054
 21
 53.215597561908851
  0
LINE
  8
0
  6
CONTINUOUS
 62
     7
 10
-15.0047485176793
 20
 49.49535843923212
 11
-13.297216762948803
 21
 51.202890193962617
  0
LINE
  8
0
  6
CONTINUOUS
 62
     7
 10
-11.652383022118155
 20
 52.847723934793265
 11
-11.194851267387602
 21
 53.305255689523818
  0
LINE
  8
0
  6
CONTINUOUS
 62
     7
 10
-14.811562101837236
 20
 49.8299671268027
 11
-13.10403034710674
 21
 51.537498881533196
  0
LINE
  8
0
  6
CONTINUOUS
 62
     7
 10
-11.704147166231703
 20
 52.937382062408233
 11
-11.24661541150115
 21
 53.394913817138786
  0
LINE
  8
0
  6
CONTINUOUS
 62
     7
 10
-14.618375685995201
 20
 50.164575814373251
 11
-12.910843931264704
 21
 51.872107569103747
  0
LINE
  8
0
  6
CONTINUOUS
 62
     7
 10
-11.755911310345251
 20
 53.0270401900232
 11
-11.298379555614698
 21
 53.484571944753753
  0
LINE
  8
0
  6
CONTINUOUS
 62
     7
 10
-14.425189270153137
 20
 50.49918450194383
 11
-12.717657515422641
 21
 52.206716256674326
  0
LINE
  8
0
  6
CONTINUOUS
 62
     7
 10
-11.807675454458799
 20
 53.116698317638168
 11
-11.350143699728218
 21
 53.574230072368749
  0
LINE
  8
0
  6
CONTINUOUS
 62
     7
 10
-14.232002854311073
 20
 50.83379318951441
 11
-12.524471099580577
 21
 52.541324944244906
  0
LINE
  8
0
  6
CONTINUOUS
 62
     7
 10
-11.859439598572347
 20
 53.206356445253135
 11
-11.401907843841766
 21
 53.663888199983717
  0
LINE
  8
0
  6
CONTINUOUS
 62
     7
 10
-14.038816438469009
 20
 51.168401877084989
 11
-12.331284683738513
 21
 52.875933631815485
  0
LINE
  8
0
  6
CONTINUOUS
 62
     7
 10
-11.911203742685867
 20
 53.296014572868131
 11
-11.453671987955314
 21
 53.753546327598684
  0
LINE
  8
0
  6
CONTINUOUS
 62
     7
 10
-13.845630022626974
 20
 51.50301056465554
 11
-12.138098267896449
 21
 53.210542319386064
  0
LINE
  8
0
  6
CONTINUOUS
 62
     7
 10
-11.962967886799415
 20
 53.385672700483099
 11
-11.510381974789222
 21
 53.83825861249332
  0
LINE
  8
0
  6
CONTINUOUS
 62
     7
 10
-13.65244360678491
 20
 51.837619252226119
 11
-11.578651776633844
 21
 53.911411082377214
  0
LINE
  8
0
  6
CONTINUOUS
 62
     7
 10
-13.459257190942846
 20
 52.172227939796699
 11
-11.658344393100972
 21
 53.973140737638602
  0
LINE
  8
0
  6
CONTINUOUS
 62
     7
 10
-13.266070775100783
 20
 52.506836627367278
 11
-11.75020942459815
 21
 54.022697977869967
  0
LINE
  8
0
  6
CONTINUOUS
 62
     7
 10
-13.072884359258719
 20
 52.841445314937857
 11
-11.856294803791396
 21
 54.05803487040518
  0
LINE
  8
0
  6
CONTINUOUS
 62
     7
 10
-12.879697943416684
 20
 53.176054002508408
 11
-11.981258513939789
 21
 54.074493431985331
  0
LINE
  8
0
  6
CONTINUOUS
 62
     7
 10
-12.68651152757462
 20
 53.510662690078988
 11
-12.137781386193634
 21
 54.059392831460002
  0
LINE
  8
0
  6
CONTINUOUS
 62
     7
 10
-15.958714668236833
 20
 43.874457321633571
 11
-15.333714668236833
 21
 44.499457321633571
  0
LINE
  8
0
  6
CONTINUOUS
 62
     7
 10
-9.9441662663712798
 20
 49.889005723499139
 11
-9.4866345116407267
 21
 50.346537478229692
  0
LINE
  8
0
  6
CONTINUOUS
 62
     7
 10
-15.817292396508318
 20
 43.874457321633571
 11
-15.192292396508318
 21
 44.499457321633571
  0
LINE
  8
0
  6
CONTINUOUS
 62
     7
 10
-9.8924021222577032
 20
 49.799347595884171
 11
-9.4348703675271501
 21
 50.256879350614724
  0
LINE
  8
0
  6
CONTINUOUS
 62
     7
 10
-15.675870124779802
 20
 43.874457321633571
 11
-15.050870124779802
 21
 44.499457321633571
  0
LINE
  8
0
  6
CONTINUOUS
 62
     7
 10
-9.8406379781441835
 20
 49.709689468269204
 11
-9.3831062234136304
 21
 50.167221222999757
  0
LINE
  8
0
  6
CONTINUOUS
 62
     7
 10
-15.534447853051287
 20
 43.874457321633571
 11
-14.909447853051287
 21
 44.499457321633571
  0
LINE
  8
0
  6
CONTINUOUS
 62
     7
 10
-9.788873834030607
 20
 49.620031340654236
 11
-9.3313420793000539
 21
 50.077563095384789
  0
LINE
  8
0
  6
CONTINUOUS
 62
     7
 10
-15.393025581322771
 20
 43.874457321633571
 11
-14.768025581322771
 21
 44.499457321633571
  0
LINE
  8
0
  6
CONTINUOUS
 62
     7
 10
-9.7371096899170873
 20
 49.530373213039269
 11
-9.2795779351865342
 21
 49.987904967769794
  0
LINE
  8
0
  6
CONTINUOUS
 62
     7
 10
-15.251603309594255
 20
 43.874457321633571
 11
-14.626603309594255
 21
 44.499457321633571
  0
LINE
  8
0
  6
CONTINUOUS
 62
     7
 10
-9.6853455458035675
 20
 49.440715085424273
 11
-9.2278137910730145
 21
 49.898246840154826
  0
LINE
  8
0
  6
CONTINUOUS
 62
     7
 10
-15.11018103786574
 20
 43.874457321633571
 11
-14.48518103786574
 21
 44.499457321633571
  0
LINE
  8
0
  6
CONTINUOUS
 62
     7
 10
-9.633581401689991
 20
 49.351056957809305
 11
-9.1760496469594379
 21
 49.808588712539859
  0
LINE
  8
0
  6
CONTINUOUS
 62
     7
 10
-14.968758766137224
 20
 43.874457321633571
 11
-14.343758766137224
 21
 44.499457321633571
  0
LINE
  8
0
  6
CONTINUOUS
 62
     7
 10
-9.5818172575764713
 20
 49.261398830194338
 11
-9.1242855028459182
 21
 49.718930584924891
  0
LINE
  8
0
  6
CONTINUOUS
 62
     7
 10
-14.827336494408708
 20
 43.874457321633571
 11
-14.202336494408708
 21
 44.499457321633571
  0
LINE
  8
0
  6
CONTINUOUS
 62
     7
 10
-9.5300531134628947
 20
 49.17174070257937
 11
-9.0725213587323417
 21
 49.629272457309924
  0
LINE
  8
0
  6
CONTINUOUS
 62
     7
 10
-14.685914222680193
 20
 43.874457321633571
 11
-14.060914222680193
 21
 44.499457321633571
  0
LINE
  8
0
  6
CONTINUOUS
 62
     7
 10
-9.478288969349375
 20
 49.082082574964403
 11
-9.020757214618822
 21
 49.539614329694928
  0
LINE
  8
0
  6
CONTINUOUS
 62
     7
 10
-14.544491950951677
 20
 43.874457321633571
 11
-13.919491950951677
 21
 44.499457321633571
  0
LINE
  8
0
  6
CONTINUOUS
 62
     7
 10
-9.4265248252358553
 20
 48.992424447349407
 11
-8.9689930705053023
 21
 49.44995620207996
  0
LINE
  8
0
  6
CONTINUOUS
 62
     7
 10
-14.403069679223162
 20
 43.874457321633571
 11
-13.778069679223162
 21
 44.499457321633571
  0
LINE
  8
0
  6
CONTINUOUS
 62
     7
 10
-9.3747606811222788
 20
 48.90276631973444
 11
-8.9172289263917257
 21
 49.360298074464993
  0
LINE
  8
0
  6
CONTINUOUS
 62
     7
 10
-14.261647407494646
 20
 43.874457321633571
 11
-13.636647407494646
 21
 44.499457321633571
  0
LINE
  8
0
  6
CONTINUOUS
 62
     7
 10
-9.3229965370087591
 20
 48.813108192119472
 11
-8.865464782278206
 21
 49.270639946850025
  0
LINE
  8
0
  6
CONTINUOUS
 62
     7
 10
-14.12022513576613
 20
 43.874457321633571
 11
-13.49522513576613
 21
 44.499457321633571
  0
LINE
  8
0
  6
CONTINUOUS
 62
     7
 10
-9.2712323928951825
 20
 48.723450064504505
 11
-8.8137006381646295
 21
 49.180981819235058
  0
LINE
  8
0
  6
CONTINUOUS
 62
     7
 10
-13.978802864037615
 20
 43.874457321633571
 11
-13.353802864037615
 21
 44.499457321633571
  0
LINE
  8
0
  6
CONTINUOUS
 62
     7
 10
-9.2194682487816628
 20
 48.633791936889537
 11
-8.7619364940511097
 21
 49.091323691620062
  0
LINE
  8
0
  6
CONTINUOUS
 62
     7
 10
-13.837380592309099
 20
 43.874457321633571
 11
-13.212380592309099
 21
 44.499457321633571
  0
LINE
  8
0
  6
CONTINUOUS
 62
     7
 10
-9.1677041046680863
 20
 48.54413380927457
 11
-8.71017234993759
 21
 49.001665564005094
  0
LINE
  8
0
  6
CONTINUOUS
 62
     7
 10
-13.695958320580583
 20
 43.874457321633571
 11
-13.070958320580583
 21
 44.499457321633571
  0
LINE
  8
0
  6
CONTINUOUS
 62
     7
 10
-9.1159399605545666
 20
 48.454475681659574
 11
-8.6584082058240135
 21
 48.912007436390127
  0
LINE
  8
0
  6
CONTINUOUS
 62
     7
 10
-13.554536048852068
 20
 43.874457321633571
 11
-12.929536048852068
 21
 44.499457321633571
  0
LINE
  8
0
  6
CONTINUOUS
 62
     7
 10
-9.0641758164410469
 20
 48.364817554044606
 11
-8.6066440617104938
 21
 48.822349308775159
  0
LINE
  8
0
  6
CONTINUOUS
 62
     7
 10
-13.413113777123552
 20
 43.874457321633571
 11
-12.788113777123552
 21
 44.499457321633571
  0
LINE
  8
0
  6
CONTINUOUS
 62
     7
 10
-9.0124116723274703
 20
 48.275159426429639
 11
-8.5548799175969172
 21
 48.732691181160192
  0
LINE
  8
0
  6
CONTINUOUS
 62
     7
 10
-13.271691505395037
 20
 43.874457321633571
 11
-12.646691505395037
 21
 44.499457321633571
  0
LINE
  8
0
  6
CONTINUOUS
 62
     7
 10
-8.9606475282139506
 20
 48.185501298814671
 11
-8.5031157734833975
 21
 48.643033053545196
  0
LINE
  8
0
  6
CONTINUOUS
 62
     7
 10
-13.130269233666521
 20
 43.874457321633571
 11
-12.505269233666521
 21
 44.499457321633571
  0
LINE
  8
0
  6
CONTINUOUS
 62
     7
 10
-8.9088833841003741
 20
 48.095843171199704
 11
-8.4513516293698778
 21
 48.553374925930228
  0
LINE
  8
0
  6
CONTINUOUS
 62
     7
 10
-12.988846961938005
 20
 43.874457321633571
 11
-12.363846961938005
 21
 44.499457321633571
  0
LINE
  8
0
  6
CONTINUOUS
 62
     7
 10
-8.8571192399868544
 20
 48.006185043584708
 11
-8.3995874852563013
 21
 48.463716798315261
  0
LINE
  8
0
  6
CONTINUOUS
 62
     7
 10
-12.84742469020949
 20
 43.874457321633571
 11
-12.22242469020949
 21
 44.499457321633571
  0
LINE
  8
0
  6
CONTINUOUS
 62
     7
 10
-8.8053550958733346
 20
 47.91652691596974
 11
-8.3478233411427816
 21
 48.374058670700293
  0
LINE
  8
0
  6
CONTINUOUS
 62
     7
 10
-12.706002418480974
 20
 43.874457321633571
 11
-12.081002418480974
 21
 44.499457321633571
  0
LINE
  8
0
  6
CONTINUOUS
 62
     7
 10
-8.7535909517597581
 20
 47.826868788354773
 11
-8.296059197029205
 21
 48.284400543085326
  0
LINE
  8
0
  6
CONTINUOUS
 62
     7
 10
-12.564580146752458
 20
 43.874457321633571
 11
-11.939580146752458
 21
 44.499457321633571
  0
LINE
  8
0
  6
CONTINUOUS
 62
     7
 10
-8.7018268076462384
 20
 47.737210660739805
 11
-8.2442950529156853
 21
 48.19474241547033
  0
LINE
  8
0
  6
CONTINUOUS
 62
     7
 10
-12.423157875023943
 20
 43.874457321633571
 11
-11.798157875023943
 21
 44.499457321633571
  0
LINE
  8
0
  6
CONTINUOUS
 62
     7
 10
-8.6500626635326618
 20
 47.647552533124838
 11
-8.1925309088021656
 21
 48.105084287855362
  0
LINE
  8
0
  6
CONTINUOUS
 62
     7
 10
-12.281735603295427
 20
 43.874457321633571
 11
-11.656735603295427
 21
 44.499457321633571
  0
LINE
  8
0
  6
CONTINUOUS
 62
     7
 10
-8.5982985194191421
 20
 47.557894405509842
 11
-8.1407667646885891
 21
 48.015426160240395
  0
LINE
  8
0
  6
CONTINUOUS
 62
     7
 10
-12.140313331566912
 20
 43.874457321633571
 11
-11.515313331566912
 21
 44.499457321633571
  0
LINE
  8
0
  6
CONTINUOUS
 62
     7
 10
-8.5465343753056224
 20
 47.468236277894874
 11
-8.0890026205750694
 21
 47.925768032625427
  0
LINE
  8
0
  6
CONTINUOUS
 62
     7
 10
-11.998891059838396
 20
 43.874457321633571
 11
-11.373891059838396
 21
 44.499457321633571
  0
LINE
  8
0
  6
CONTINUOUS
 62
     7
 10
-8.4947702311920459
 20
 47.378578150279907
 11
-8.0372384764614928
 21
 47.83610990501046
  0
LINE
  8
0
  6
CONTINUOUS
 62
     7
 10
-11.85746878810988
 20
 43.874457321633571
 11
-11.23246878810988
 21
 44.499457321633571
  0
LINE
  8
0
  6
CONTINUOUS
 62
     7
 10
-8.4430060870785262
 20
 47.288920022664939
 11
-7.9854743323479731
 21
 47.746451777395464
  0
LINE
  8
0
  6
CONTINUOUS
 62
     7
 10
-11.716046516381365
 20
 43.874457321633571
 11
-11.091046516381365
 21
 44.499457321633571
  0
LINE
  8
0
  6
CONTINUOUS
 62
     7
 10
-8.3912419429649496
 20
 47.199261895049972
 11
-7.9337101882344534
 21
 47.656793649780496
  0
LINE
  8
0
  6
CONTINUOUS
 62
     7
 10
-11.574624244652849
 20
 43.874457321633571
 11
-10.949624244652849
 21
 44.499457321633571
  0
LINE
  8
0
  6
CONTINUOUS
 62
     7
 10
-8.3394777988514299
 20
 47.109603767434976
 11
-7.8819460441208768
 21
 47.567135522165529
  0
LINE
  8
0
  6
CONTINUOUS
 62
     7
 10
-11.433201972924333
 20
 43.874457321633571
 11
-10.808201972924333
 21
 44.499457321633571
  0
LINE
  8
0
  6
CONTINUOUS
 62
     7
 10
-8.2877136547379102
 20
 47.019945639820008
 11
-7.8301819000073571
 21
 47.477477394550561
  0
LINE
  8
0
  6
CONTINUOUS
 62
     7
 10
-11.291779701195818
 20
 43.874457321633571
 11
-10.666779701195818
 21
 44.499457321633571
  0
LINE
  8
0
  6
CONTINUOUS
 62
     7
 10
-8.2359495106243337
 20
 46.930287512205041
 11
-7.7784177558938374
 21
 47.387819266935566
  0
LINE
  8
0
  6
CONTINUOUS
 62
     7
 10
-11.150357429467302
 20
 43.874457321633571
 11
-10.525357429467302
 21
 44.499457321633571
  0
LINE
  8
0
  6
CONTINUOUS
 62
     7
 10
-8.184185366510814
 20
 46.840629384590073
 11
-7.7266536117802609
 21
 47.298161139320598
  0
LINE
  8
0
  6
CONTINUOUS
 62
     7
 10
-11.008935157738787
 20
 43.874457321633571
 11
-10.383935157738787
 21
 44.499457321633571
  0
LINE
  8
0
  6
CONTINUOUS
 62
     7
 10
-8.1324212223972374
 20
 46.750971256975106
 11
-7.6748894676667412
 21
 47.208503011705631
  0
LINE
  8
0
  6
CONTINUOUS
 62
     7
 10
-10.867512886010271
 20
 43.874457321633571
 11
-10.242512886010285
 21
 44.499457321633571
  0
LINE
  8
0
  6
CONTINUOUS
 62
     7
 10
-8.0806570782837177
 20
 46.661313129360138
 11
-7.6231253235531646
 21
 47.118844884090663
  0
LINE
  8
0
  6
CONTINUOUS
 62
     7
 10
-10.726090614281755
 20
 43.874457321633571
 11
-10.10109061428177
 21
 44.499457321633571
  0
LINE
  8
0
  6
CONTINUOUS
 62
     7
 10
-8.028892934170198
 20
 46.571655001745142
 11
-7.5713611794396449
 21
 47.029186756475696
  0
LINE
  8
0
  6
CONTINUOUS
 62
     7
 10
-10.58466834255324
 20
 43.874457321633571
 11
-9.959668342553254
 21
 44.499457321633571
  0
LINE
  8
0
  6
CONTINUOUS
 62
     7
 10
-7.9771287900566215
 20
 46.481996874130175
 11
-7.5195970353261252
 21
 46.9395286288607
  0
LINE
  8
0
  6
CONTINUOUS
 62
     7
 10
-10.443246070824724
 20
 43.874457321633571
 11
-9.8182460708247383
 21
 44.499457321633571
  0
LINE
  8
0
  6
CONTINUOUS
 62
     7
 10
-7.9253646459431017
 20
 46.392338746515208
 11
-7.4678328912125487
 21
 46.849870501245732
  0
LINE
  8
0
  6
CONTINUOUS
 62
     7
 10
-10.301823799096223
 20
 43.874457321633571
 11
-9.6768237990962227
 21
 44.499457321633571
  0
LINE
  8
0
  6
CONTINUOUS
 62
     7
 10
-7.8736005018295252
 20
 46.30268061890024
 11
-7.416068747099029
 21
 46.760212373630765
  0
LINE
  8
0
  6
CONTINUOUS
 62
     7
 10
-10.160401527367707
 20
 43.874457321633571
 11
-9.5354015273677071
 21
 44.499457321633571
  0
LINE
  8
0
  6
CONTINUOUS
 62
     7
 10
-7.8218363577160055
 20
 46.213022491285273
 11
-7.3643046029854524
 21
 46.670554246015797
  0
LINE
  8
0
  6
CONTINUOUS
 62
     7
 10
-10.018979255639191
 20
 43.874457321633571
 11
-9.3939792556391915
 21
 44.499457321633571
  0
LINE
  8
0
  6
CONTINUOUS
 62
     7
 10
-7.7700722136024858
 20
 46.123364363670277
 11
-7.3125404588719327
 21
 46.58089611840083
  0
LINE
  8
0
  6
CONTINUOUS
 62
     7
 10
-9.8775569839106758
 20
 43.874457321633571
 11
-9.2525569839106758
 21
 44.499457321633571
  0
LINE
  8
0
  6
CONTINUOUS
 62
     7
 10
-7.7183080694889092
 20
 46.033706236055309
 11
-7.260776314758413
 21
 46.491237990785834
  0
LINE
  8
0
  6
CONTINUOUS
 62
     7
 10
-9.7361347121821602
 20
 43.874457321633571
 11
-9.1111347121821602
 21
 44.499457321633571
  0
LINE
  8
0
  6
CONTINUOUS
 62
     7
 10
-7.6665439253753895
 20
 45.944048108440342
 11
-7.2090121706448365
 21
 46.401579863170866
  0
LINE
  8
0
  6
CONTINUOUS
 62
     7
 10
-9.5947124404536446
 20
 43.874457321633571
 11
-8.9697124404536446
 21
 44.499457321633571
  0
LINE
  8
0
  6
CONTINUOUS
 62
     7
 10
-7.614779781261813
 20
 45.854389980825374
 11
-7.1572480265313168
 21
 46.311921735555899
  0
LINE
  8
0
  6
CONTINUOUS
 62
     7
 10
-9.453290168725129
 20
 43.874457321633571
 11
-8.828290168725129
 21
 44.499457321633571
  0
LINE
  8
0
  6
CONTINUOUS
 62
     7
 10
-7.5630156371482933
 20
 45.764731853210407
 11
-7.1054838824177402
 21
 46.222263607940931
  0
LINE
  8
0
  6
CONTINUOUS
 62
     7
 10
-9.3118678969966133
 20
 43.874457321633571
 11
-8.6868678969966133
 21
 44.499457321633571
  0
LINE
  8
0
  6
CONTINUOUS
 62
     7
 10
-7.5112514930347736
 20
 45.675073725595411
 11
-7.0537197383042205
 21
 46.132605480325964
  0
LINE
  8
0
  6
CONTINUOUS
 62
     7
 10
-9.1704456252680977
 20
 43.874457321633571
 11
-8.5454456252680977
 21
 44.499457321633571
  0
LINE
  8
0
  6
CONTINUOUS
 62
     7
 10
-7.459487348921197
 20
 45.585415597980443
 11
-7.0019555941907008
 21
 46.042947352710968
  0
LINE
  8
0
  6
CONTINUOUS
 62
     7
 10
-9.0290233535395821
 20
 43.874457321633571
 11
-8.4040233535395821
 21
 44.499457321633571
  0
LINE
  8
0
  6
CONTINUOUS
 62
     7
 10
-7.4077232048076773
 20
 45.495757470365476
 11
-6.9501914500771242
 21
 45.953289225096
  0
LINE
  8
0
  6
CONTINUOUS
 62
     7
 10
-8.8876010818110665
 20
 43.874457321633571
 11
-8.2626010818110665
 21
 44.499457321633571
  0
LINE
  8
0
  6
CONTINUOUS
 62
     7
 10
-7.3559590606941008
 20
 45.406099342750508
 11
-6.8984273059636045
 21
 45.863631097481033
  0
LINE
  8
0
  6
CONTINUOUS
 62
     7
 10
-8.7461788100825508
 20
 43.874457321633571
 11
-8.1211788100825508
 21
 44.499457321633571
  0
LINE
  8
0
  6
CONTINUOUS
 62
     7
 10
-7.3041949165805811
 20
 45.316441215135541
 11
-6.846663161850028
 21
 45.773972969866065
  0
LINE
  8
0
  6
CONTINUOUS
 62
     7
 10
-8.6047565383540352
 20
 43.874457321633571
 11
-7.9797565383540352
 21
 44.499457321633571
  0
LINE
  8
0
  6
CONTINUOUS
 62
     7
 10
-7.2524307724670614
 20
 45.226783087520545
 11
-6.7948990177365083
 21
 45.684314842251098
  0
LINE
  8
0
  6
CONTINUOUS
 62
     7
 10
-8.4633342666255196
 20
 43.874457321633571
 11
-7.8383342666255196
 21
 44.499457321633571
  0
LINE
  8
0
  6
CONTINUOUS
 62
     7
 10
-7.2006666283534848
 20
 45.137124959905577
 11
-6.7431348736229886
 21
 45.594656714636102
  0
LINE
  8
0
  6
CONTINUOUS
 62
     7
 10
-8.321911994897004
 20
 43.874457321633571
 11
-7.696911994897004
 21
 44.499457321633571
  0
LINE
  8
0
  6
CONTINUOUS
 62
     7
 10
-7.1489024842399651
 20
 45.04746683229061
 11
-6.691370729509412
 21
 45.504998587021134
  0
LINE
  8
0
  6
CONTINUOUS
 62
     7
 10
-8.1804897231684883
 20
 43.874457321633571
 11
-7.5554897231684883
 21
 44.499457321633571
  0
LINE
  8
0
  6
CONTINUOUS
 62
     7
 10
-7.0971383401263886
 20
 44.957808704675642
 11
-6.6396065853958923
 21
 45.415340459406167
  0
LINE
  8
0
  6
CONTINUOUS
 62
     7
 10
-8.0390674514399727
 20
 43.874457321633571
 11
-7.4140674514399727
 21
 44.499457321633571
  0
LINE
  8
0
  6
CONTINUOUS
 62
     7
 10
-7.0453741960128689
 20
 44.868150577060675
 11
-6.5878424412823158
 21
 45.325682331791199
  0
LINE
  8
0
  6
CONTINUOUS
 62
     7
 10
-7.8976451797114571
 20
 43.874457321633571
 11
-7.2726451797114571
 21
 44.499457321633571
  0
LINE
  8
0
  6
CONTINUOUS
 62
     7
 10
-6.9936100518992923
 20
 44.778492449445707
 11
-6.5360782971687961
 21
 45.236024204176232
  0
LINE
  8
0
  6
CONTINUOUS
 62
     7
 10
-7.7562229079829415
 20
 43.874457321633571
 11
-7.1312229079829415
 21
 44.499457321633571
  0
LINE
  8
0
  6
CONTINUOUS
 62
     7
 10
-6.9418459077857726
 20
 44.688834321830711
 11
-6.4843141530552764
 21
 45.146366076561236
  0
LINE
  8
0
  6
CONTINUOUS
 62
     7
 10
-7.6148006362544258
 20
 43.874457321633571
 11
-6.9898006362544258
 21
 44.499457321633571
  0
LINE
  8
0
  6
CONTINUOUS
 62
     7
 10
-6.8900817636722529
 20
 44.599176194215744
 11
-6.4325500089416998
 21
 45.056707948946269
  0
LINE
  8
0
  6
CONTINUOUS
 62
     7
 10
-7.4733783645259102
 20
 43.874457321633571
 11
-6.8483783645259102
 21
 44.499457321633571
  0
LINE
  8
0
  6
CONTINUOUS
 62
     7
 10
-6.8383176195586763
 20
 44.509518066600776
 11
-6.3807858648281801
 21
 44.967049821331301
  0
LINE
  8
0
  6
CONTINUOUS
 62
     7
 10
-7.3319560927973946
 20
 43.874457321633571
 11
-6.3290217207146036
 21
 44.877391693716334
  0
LINE
  8
0
  6
CONTINUOUS
 62
     7
 10
-7.190533821068879
 20
 43.874457321633571
 11
-6.2777221480259406
 21
 44.787268994676509
  0
LINE
  8
0
  6
CONTINUOUS
 62
     7
 10
-7.0491115493403633
 20
 43.874457321633571
 11
-6.2363728861319139
 21
 44.68719598484202
  0
LINE
  8
0
  6
CONTINUOUS
 62
     7
 10
-6.9076892776118477
 20
 43.874457321633571
 11
-6.2115692929791742
 21
 44.570577306266244
  0
LINE
  8
0
  6
CONTINUOUS
 62
     7
 10
-6.762313002007442
 20
 43.878411325509461
 11
-6.2114641640051325
 21
 44.429260163511771
  0
LINE
  8
0
  6
CONTINUOUS
 62
     7
 10
-6.5644341031520632
 20
 43.934867952636381
 11
-6.2679207911320525
 21
 44.231381264656335
  0
ARC
  8
0
  6
CONTINUOUS
 62
     3
 10
-11.999977291013121
 20
 47.150164868938987
 40
 0.29997
 50
 180.00000307046903
 51
 0
  0
ARC
  8
0
  6
CONTINUOUS
 62
     3
 10
-11.999977291013121
 20
 50.499829868939059
 40
 0.549945
 50
-4.2797832732897314
 51
-175.72021979717459
  0
LINE
  8
0
  6
CONTINUOUS
 62
     3
 10
-12.299110832968662
 20
 47.127779048043465
 11
-12.548388784598099
 21
 50.45878919729725
  0
LINE
  8
0
  6
CONTINUOUS
 62
     3
 10
-11.700843749057636
 20
 47.127779048043465
 11
-11.451565797428085
 21
 50.45878919729725
  0
LINE
  8
0
  6
CONTINUOUS
 62
     7
 10
-12.349454859841867
 20
 47.800507876937985
 11
-11.593962004490944
 21
 48.556000732288879
  0
LINE
  8
0
  6
CONTINUOUS
 62
     7
 10
-12.357332092783533
 20
 47.905768461379097
 11
-11.584810410010814
 21
 48.678290144151845
  0
LINE
  8
0
  6
CONTINUOUS
 62
     7
 10
-12.365209325725228
 20
 48.011029045820209
 11
-11.575658815530684
 21
 48.800579556014782
  0
LINE
  8
0
  6
CONTINUOUS
 62
     7
 10
-12.373086558666952
 20
 48.116289630261321
 11
-11.566507221050525
 21
 48.922868967877747
  0
LINE
  8
0
  6
CONTINUOUS
 62
     7
 10
-12.380963791608618
 20
 48.221550214702461
 11
-11.557355626570395
 21
 49.045158379740684
  0
LINE
  8
0
  6
CONTINUOUS
 62
     7
 10
-12.388841024550313
 20
 48.326810799143573
 11
-11.548204032090265
 21
 49.167447791603621
  0
LINE
  8
0
  6
CONTINUOUS
 62
     7
 10
-12.396718257492008
 20
 48.432071383584713
 11
-11.539052437610163
 21
 49.289737203466558
  0
LINE
  8
0
  6
CONTINUOUS
 62
     7
 10
-12.404595490433703
 20
 48.537331968025825
 11
-11.529900843130005
 21
 49.412026615329495
  0
LINE
  8
0
  6
CONTINUOUS
 62
     7
 10
-12.41247272337537
 20
 48.642592552466965
 11
-11.520749248649874
 21
 49.53431602719246
  0
LINE
  8
0
  6
CONTINUOUS
 62
     7
 10
-12.420349956317065
 20
 48.747853136908077
 11
-11.511597654169744
 21
 49.656605439055397
  0
LINE
  8
0
  6
CONTINUOUS
 62
     7
 10
-12.428227189258759
 20
 48.853113721349217
 11
-11.502446059689614
 21
 49.778894850918363
  0
LINE
  8
0
  6
CONTINUOUS
 62
     7
 10
-12.436104422200454
 20
 48.958374305790329
 11
-11.493294465209484
 21
 49.9011842627813
  0
LINE
  8
0
  6
CONTINUOUS
 62
     7
 10
-12.443981655142121
 20
 49.063634890231441
 11
-11.484142870729354
 21
 50.023473674644237
  0
LINE
  8
0
  6
CONTINUOUS
 62
     7
 10
-12.451858888083844
 20
 49.168895474672553
 11
-11.474991276249224
 21
 50.145763086507174
  0
LINE
  8
0
  6
CONTINUOUS
 62
     7
 10
-12.459736121025511
 20
 49.274156059113693
 11
-11.465839681769094
 21
 50.26805249837011
  0
LINE
  8
0
  6
CONTINUOUS
 62
     7
 10
-12.467613353967206
 20
 49.379416643554805
 11
-11.456688087288963
 21
 50.390341910233076
  0
LINE
  8
0
  6
CONTINUOUS
 62
     7
 10
-12.475490586908901
 20
 49.484677227995945
 11
-11.450128263823554
 21
 50.51003955108132
  0
LINE
  8
0
  6
CONTINUOUS
 62
     7
 10
-12.483367819850596
 20
 49.589937812437057
 11
-11.461544884019784
 21
 50.611760748267869
  0
LINE
  8
0
  6
CONTINUOUS
 62
     7
 10
-12.491245052792262
 20
 49.695198396878197
 11
-11.487387189011226
 21
 50.699055497719797
  0
LINE
  8
0
  6
CONTINUOUS
 62
     7
 10
-12.499122285733957
 20
 49.800458981319309
 11
-11.524102000680923
 21
 50.775478503432936
  0
LINE
  8
0
  6
CONTINUOUS
 62
     7
 10
-12.506999518675681
 20
 49.905719565760421
 11
-11.570008734611402
 21
 50.842709586885235
  0
LINE
  8
0
  6
CONTINUOUS
 62
     7
 10
-12.514876751617347
 20
 50.010980150201561
 11
-11.624350146248783
 21
 50.901505992630661
  0
LINE
  8
0
  6
CONTINUOUS
 62
     7
 10
-12.522753984559042
 20
 50.116240734642673
 11
-11.68697888400143
 21
 50.952015072260849
  0
LINE
  8
0
  6
CONTINUOUS
 62
     7
 10
-12.530631217500737
 20
 50.221501319083785
 11
-11.75830596047177
 21
 50.993826576112781
  0
LINE
  8
0
  6
CONTINUOUS
 62
     7
 10
-12.538508450442432
 20
 50.326761903524897
 11
-11.839447893436041
 21
 51.025822460531316
  0
LINE
  8
0
  6
CONTINUOUS
 62
     7
 10
-12.546385683384099
 20
 50.432022487966037
 11
-11.932756314533631
 21
 51.045651093877098
  0
LINE
  8
0
  6
CONTINUOUS
 62
     7
 10
-12.548197826337113
 20
 50.543347399456394
 11
-12.043494876589133
 21
 51.048050349204402
  0
LINE
  8
0
  6
CONTINUOUS
 62
     7
 10
-12.516754083397043
 20
 50.687928959779299
 11
-12.188076436912009
 21
 51.016606606264332
  0
LINE
  8
0
  6
CONTINUOUS
 62
     7
 10
-12.341577626900172
 20
 47.695247292496873
 11
-11.603113598971046
 21
 48.433711320425971
  0
LINE
  8
0
  6
CONTINUOUS
 62
     7
 10
-12.333700393958477
 20
 47.589986708055733
 11
-11.612265193451204
 21
 48.311421908563005
  0
LINE
  8
0
  6
CONTINUOUS
 62
     7
 10
-12.325823161016782
 20
 47.484726123614621
 11
-11.621416787931334
 21
 48.189132496700068
  0
LINE
  8
0
  6
CONTINUOUS
 62
     7
 10
-12.317945928075115
 20
 47.379465539173481
 11
-11.630568382411465
 21
 48.066843084837132
  0
LINE
  8
0
  6
CONTINUOUS
 62
     7
 10
-12.310068695133392
 20
 47.274204954732369
 11
-11.639719976891595
 21
 47.944553672974166
  0
LINE
  8
0
  6
CONTINUOUS
 62
     7
 10
-12.302191462191725
 20
 47.168944370291229
 11
-11.648871571371725
 21
 47.822264261111229
  0
LINE
  8
0
  6
CONTINUOUS
 62
     7
 10
-12.288810839531802
 20
 47.069186412628909
 11
-11.658023165851855
 21
 47.699974849248292
  0
LINE
  8
0
  6
CONTINUOUS
 62
     7
 10
-12.254092653648538
 20
 46.990766781129338
 11
-11.667174760331985
 21
 47.577685437385355
  0
LINE
  8
0
  6
CONTINUOUS
 62
     7
 10
-12.20267822623472
 20
 46.929043391160377
 11
-11.676326354812115
 21
 47.45539602552239
  0
LINE
  8
0
  6
CONTINUOUS
 62
     7
 10
-12.135851970206996
 20
 46.882731829805294
 11
-11.685477949292245
 21
 47.333106613659453
  0
LINE
  8
0
  6
CONTINUOUS
 62
     7
 10
-12.050898066952978
 20
 46.854547915676477
 11
-11.694629543772404
 21
 47.210817201796516
  0
LINE
  8
0
  6
CONTINUOUS
 62
     7
 10
-11.934989261130251
 20
 46.857318904116397
 11
-11.707132213768656
 21
 47.085175951478021
  0
CIRCLE
  8
0
  6
CONTINUOUS
 62
     3
 10
-11.999977291013121
 20
 46.000279868938946
 40
 0.549945
  0
LINE
  8
0
  6
CONTINUOUS
 62
     7
 10
-12.388847507381282
 20
 45.611409724027482
 11
-11.611107829822313
 21
 46.389149401586451
  0
LINE
  8
0
  6
CONTINUOUS
 62
     7
 10
-12.441279869379567
 20
 45.672115179412003
 11
-11.671813285206834
 21
 46.441581763584765
  0
LINE
  8
0
  6
CONTINUOUS
 62
     7
 10
-12.485163302408491
 20
 45.741369563765915
 11
-11.741067669560717
 21
 46.48546519661366
  0
LINE
  8
0
  6
CONTINUOUS
 62
     7
 10
-12.519569185015452
 20
 45.82010149854176
 11
-11.819799604336591
 21
 46.519871079220621
  0
LINE
  8
0
  6
CONTINUOUS
 62
     7
 10
-12.542511224145525
 20
 45.910297276794495
 11
-11.909995382589326
 21
 46.542813118350693
  0
LINE
  8
0
  6
CONTINUOUS
 62
     7
 10
-12.549690523287094
 20
 46.016255795035732
 11
-12.015953900830564
 21
 46.549992417492263
  0
LINE
  8
0
  6
CONTINUOUS
 62
     7
 10
-12.529175829722501
 20
 46.149908305983132
 11
-12.149606411777963
 21
 46.52947772392767
  0
LINE
  8
0
  6
CONTINUOUS
 62
     7
 10
-12.328142062503328
 20
 45.5589773515226
 11
-11.558675457317459
 21
 46.328443956708526
  0
LINE
  8
0
  6
CONTINUOUS
 62
     7
 10
-12.258887689372497
 20
 45.515093907270654
 11
-11.514792013065485
 21
 46.259189583577637
  0
LINE
  8
0
  6
CONTINUOUS
 62
     7
 10
-12.180155767526085
 20
 45.480688011734259
 11
-11.480386117529061
 21
 46.180457661731253
  0
LINE
  8
0
  6
CONTINUOUS
 62
     7
 10
-12.089960005739979
 20
 45.457745956137529
 11
-11.45744406193236
 21
 46.090261899945148
  0
LINE
  8
0
  6
CONTINUOUS
 62
     7
 10
-11.984001512107508
 20
 45.450566632387194
 11
-11.450264738181996
 21
 45.984303406312705
  0
LINE
  8
0
  6
CONTINUOUS
 62
     7
 10
-11.850349053219698
 20
 45.471081273892167
 11
-11.470779379686999
 21
 45.850650947424896
  0
ENDBLK
  8
0
  0
ENDSEC
  0
SECTION
  2
ENTITIES
  0
LINE
  8
0
  6
CONTINUOUS
 62
     3
 10
-37.499995231628375
 20
 62.150010172032125
 11
 48.500004768371568
 21
 62.150010172032111
  0
LINE
  8
0
  6
CONTINUOUS
 62
     3
 10
-37.499995231628375
 20
 62.150010172032125
 11
 48.500004768371568
 21
 62.150010172032111
  0
LINE
  8
0
  6
CONTINUOUS
 62
     3
 10
 48.500004768371539
 20
 62.150010172032111
 11
 48.500004768371539
 21
-39.849989827967931
  0
LINE
  8
0
  6
CONTINUOUS
 62
     3
 10
 48.500004768371497
 20
-39.849989827967931
 11
-37.499995231628404
 21
-39.849989827967931
  0
LINE
  8
0
  6
CONTINUOUS
 62
     3
 10
-37.499995231628404
 20
-39.849989827967931
 11
-37.499995231628375
 21
 62.150010172032125
  0
LINE
  8
0
  6
CONTINUOUS
 62
     2
 10
-34.499995231628404
 20
 59.150010172032125
 11
 45.50000476837161
 21
 59.150010172032111
  0
LINE
  8
0
  6
CONTINUOUS
 62
     2
 10
 45.500004768371554
 20
 59.150010172032111
 11
 45.500004768371582
 21
-36.849989827967917
  0
LINE
  8
0
  6
CONTINUOUS
 62
     2
 10
 45.500004768371539
 20
-36.849989827967917
 11
-34.499995231628404
 21
-36.849989827967917
  0
LINE
  8
0
  6
CONTINUOUS
 62
     2
 10
-34.499995231628404
 20
-36.849989827967917
 11
-34.499995231628404
 21
 59.150010172032125
  0
LINE
  8
0
  6
CONTINUOUS
 62
     2
 10
-34.499995231628404
 20
 39.15001017203214
 11
 45.500004768371582
 21
 39.150010172032111
  0
LINE
  8
0
  6
CONTINUOUS
 62
     2
 10
-34.499995231628404
 20
-4.8499898279679083
 11
 45.50000476837161
 21
-4.8499898279679439
  0
TEXT
  8
0
  6
CONTINUOUS
 62
     2
 10
-27.699995231628417
 20
-19.099989827967931
 11
 39.900004768371588
 21
-19.099989827967946
 40
 9.5
 41
 0.8
  1
感電の恐れあり
 50
 0
 72
  5
  0
TEXT
  8
0
  6
CONTINUOUS
 62
     2
 10
-27.699995231628417
 20
-31.099989827967963
 11
 39.900004768371588
 21
-31.099989827967981
 40
 9.5
 41
 0.8
  1
保護板を外すな
 50
 0
 72
  5
  0
TEXT
  8
0
  6
CONTINUOUS
 62
     4
 10
-1.2389487200078946
 20
 42.909090510302221
 11
 29.161051279992108
 21
 42.909090510302214
 40
 14
 41
 0.8
  1
警告
 50
 0
 72
  5
  0
TEXT
  8
0
  6
CONTINUOUS
 62
     7
 10
 33.491125275771161
 20
-35.719228728602147
 11
 44.21112527577116
 21
-35.719228728602147
 40
 1.5
 41
 0.8
  1
Ｉ－４５７２０Ａ
 50
 0
 72
  5
  0
TEXT
  8
0
  6
CONTINUOUS
 62
     7
 10
-61.381496288710828
 20
 41.694936176260541
 11
-55.281496288710827
 21
 41.694936176260541
 40
 3.5000000000000004
 41
 0.8
  1
黒色
 50
 0
 72
  5
  0
LINE
  8
0
  6
CONTINUOUS
 62
     7
 10
-65.309191848964545
 20
 40.781088396133697
 11
-45.214054428245689
 21
 40.781088396133697
  0
TEXT
  8
0
  6
CONTINUOUS
 62
     7
 10
-65.745217218943381
 20
 37.461215246027983
 11
-48.16521721894339
 21
 37.461215246027983
 40
 2.2000000000000002
 41
 0.8
  1
マンセル（Ｎ１）
 50
 0
 72
  5
  0
TEXT
  8
0
  6
CONTINUOUS
 62
     7
 10
-61.381496288710828
 20
 17.944936176260438
 11
-55.281496288710827
 21
 17.944936176260438
 40
 3.5000000000000004
 41
 0.8
  1
黄色
 50
 0
 72
  5
  0
LINE
  8
0
  6
CONTINUOUS
 62
     7
 10
-65.309191848964545
 20
 17.03108839613358
 11
-45.214054428245689
 21
 17.03108839613358
  0
TEXT
  8
0
  6
CONTINUOUS
 62
     7
 10
-65.745217218943381
 20
 13.711215246027866
 11
-57.205217218943389
 21
 13.711215246027868
 40
 2.2000000000000002
 41
 0.8
  1
マンセル
 50
 0
 72
  5
  0
TEXT
  8
0
  6
CONTINUOUS
 62
     7
 10
-65.745217218943381
 20
 10.711215246027869
 11
-46.345217218943382
 21
 10.711215246027869
 40
 2.2000000000000002
 41
 0.8
  1
（２．５Ｙ８／１４）
 50
 0
 72
  5
  0
LINE
  8
0
  6
CONTINUOUS
 62
     7
 10
-45.214054428245689
 20
 40.781088396133697
 11
-15.092954480841616
 21
 49.331303299511049
  0
LINE
  8
0
  6
CONTINUOUS
 62
     7
 10
-15.092954480841616
 20
 49.331303299511049
 11
-18.092626534554086
 21
 49.286945998235936
  0
LINE
  8
0
  6
CONTINUOUS
 62
     7
 10
-15.092954480841616
 20
 49.331303299511049
 11
-17.668568031741298
 21
 47.793052722907241
  0
LINE
  8
0
  6
CONTINUOUS
 62
     7
 10
-45.214054428245689
 20
 40.781088396133683
 11
-1.8529809186737976
 21
 21.354957301286397
  0
LINE
  8
0
  6
CONTINUOUS
 62
     7
 10
-1.8529809186737976
 20
 21.354957301286397
 11
-4.1800370644099054
 21
 23.248316668810642
  0
LINE
  8
0
  6
CONTINUOUS
 62
     7
 10
-1.8529809186737976
 20
 21.354957301286397
 11
-4.8149503406760932
 21
 21.831126539187579
  0
LINE
  8
0
  6
CONTINUOUS
 62
     7
 10
-45.214054428245689
 20
 40.781088396133683
 11
 4.6220977916274357
 21
 24.360792413046912
  0
LINE
  8
0
  6
CONTINUOUS
 62
     7
 10
 4.6220977916274357
 20
 24.360792413046912
 11
 2.1128463424577606
 21
 26.005072548802339
  0
LINE
  8
0
  6
CONTINUOUS
 62
     7
 10
 4.6220977916274357
 20
 24.360792413046912
 11
 1.6268822242858669
 21
 24.5301550569644
  0
LINE
  8
0
  6
CONTINUOUS
 62
     7
 10
-45.214054428245689
 20
 17.03108839613358
 11
-2.1367176465374
 21
 9.3187206818376982
  0
LINE
  8
0
  6
CONTINUOUS
 62
     7
 10
-2.1367176465374
 20
 9.3187206818376982
 11
-4.8523028660162897
 21
 10.593709668357894
  0
LINE
  8
0
  6
CONTINUOUS
 62
     7
 10
-2.1367176465374
 20
 9.3187206818376982
 11
-5.1259779260077565
 21
 9.0651009239701175
  0
LINE
  8
0
  6
CONTINUOUS
 62
     7
 10
-45.214054428245689
 20
 17.03108839613358
 11
-13.92806454899541
 21
 46.682306489867969
  0
LINE
  8
0
  6
CONTINUOUS
 62
     7
 10
-13.92806454899541
 20
 46.682306489867969
 11
-16.565432608361796
 21
 45.252519890604297
  0
LINE
  8
0
  6
CONTINUOUS
 62
     7
 10
-13.92806454899541
 20
 46.682306489867969
 11
-15.497198987904529
 21
 44.125390943231871
  0
LINE
  8
0
  6
CONTINUOUS
 62
     7
 10
 50.500004768371539
 20
-36.849989827967917
 11
 65.94693922925957
 21
-36.849989827967917
  0
LINE
  8
0
  6
CONTINUOUS
 62
     7
 10
 64.94693922925957
 20
-36.849989827967917
 11
 64.94693922925957
 21
-39.849989827967931
  0
LINE
  8
0
  6
CONTINUOUS
 62
     7
 10
 64.94693922925957
 20
-31.849989827967914
 11
 64.94693922925957
 21
-36.849989827967917
  0
LINE
  8
0
  6
CONTINUOUS
 62
     7
 10
 64.94693922925957
 20
-36.849989827967917
 11
 65.723396364567137
 21
-33.952212349100712
  0
LINE
  8
0
  6
CONTINUOUS
 62
     7
 10
 64.94693922925957
 20
-36.849989827967917
 11
 64.170482093952003
 21
-33.952212349100712
  0
LINE
  8
0
  6
CONTINUOUS
 62
     7
 10
 50.500004768371539
 20
 59.150010172032111
 11
 65.94693922925957
 21
 59.150010172032111
  0
LINE
  8
0
  6
CONTINUOUS
 62
     7
 10
 64.94693922925957
 20
 59.150010172032111
 11
 64.94693922925957
 21
 62.150010172032111
  0
TEXT
  8
0
  6
CONTINUOUS
 62
     7
 10
 63.946939229259584
 20
 63.910010172032109
 11
 63.946939229259577
 21
 65.670010172032107
 40
 2.2000000000000002
 41
 0.8
  1
３
 50
 90.000001535234517
 72
  5
  0
LINE
  8
0
  6
CONTINUOUS
 62
     7
 10
 64.94693922925957
 20
 67.430010172032112
 11
 64.94693922925957
 21
 62.150010172032111
  0
LINE
  8
0
  6
CONTINUOUS
 62
     7
 10
 64.94693922925957
 20
 62.150010172032111
 11
 65.723396364567137
 21
 65.047787650899323
  0
LINE
  8
0
  6
CONTINUOUS
 62
     7
 10
 64.94693922925957
 20
 62.150010172032111
 11
 64.170482093952003
 21
 65.047787650899323
  0
LINE
  8
0
  6
CONTINUOUS
 62
     7
 10
 64.94693922925957
 20
 54.150010172032111
 11
 64.94693922925957
 21
 59.150010172032111
  0
LINE
  8
0
  6
CONTINUOUS
 62
     7
 10
 64.94693922925957
 20
 59.150010172032111
 11
 64.170482093952003
 21
 56.252232693164906
  0
LINE
  8
0
  6
CONTINUOUS
 62
     7
 10
 64.94693922925957
 20
 59.150010172032111
 11
 65.723396364567137
 21
 56.252232693164906
  0
LINE
  8
0
  6
CONTINUOUS
 62
     7
 10
-45.214054428245717
 20
 40.781088396133697
 11
-34.499995231628404
 21
 32.150010172032111
  0
LINE
  8
0
  6
CONTINUOUS
 62
     7
 10
-34.499995231628404
 20
 32.150010172032111
 11
-36.269513997705261
 21
 34.572571489419524
  0
LINE
  8
0
  6
CONTINUOUS
 62
     7
 10
-34.499995231628404
 20
 32.150010172032111
 11
-37.24372409421796
 21
 33.363250432076676
  0
LINE
  8
0
  6
CONTINUOUS
 62
     7
 10
 50.500004768371539
 20
-39.849989827967931
 11
 70.94693922925957
 21
-39.849989827967931
  0
LINE
  8
0
  6
CONTINUOUS
 62
     7
 10
 50.500004768371539
 20
 62.150010172032111
 11
 70.94693922925957
 21
 62.150010172032111
  0
LINE
  8
0
  6
CONTINUOUS
 62
     7
 10
 69.94693922925957
 20
-39.849989827967931
 11
 69.94693922925957
 21
 62.150010172032111
  0
LINE
  8
0
  6
CONTINUOUS
 62
     7
 10
 69.94693922925957
 20
-39.849989827967931
 11
 70.723396364567137
 21
-36.952212349100726
  0
LINE
  8
0
  6
CONTINUOUS
 62
     7
 10
 69.94693922925957
 20
-39.849989827967931
 11
 69.170482093952003
 21
-36.952212349100726
  0
LINE
  8
0
  6
CONTINUOUS
 62
     7
 10
 69.94693922925957
 20
 62.150010172032111
 11
 69.170482093952003
 21
 59.252232693164906
  0
LINE
  8
0
  6
CONTINUOUS
 62
     7
 10
 69.94693922925957
 20
 62.150010172032111
 11
 70.723396364567137
 21
 59.252232693164906
  0
TEXT
  8
0
  6
CONTINUOUS
 62
     7
 10
 68.946939229259584
 20
 8.0100101720321
 11
 68.94693922925957
 21
 14.290010172032101
 40
 2.2000000000000002
 41
 0.8
  1
102
 50
 90.000001535234517
 72
  5
  0
LINE
  8
0
  6
CONTINUOUS
 62
     7
 10
 50.500004768371539
 20
 39.150010172032111
 11
 60.946939229259556
 21
 39.150010172032111
  0
LINE
  8
0
  6
CONTINUOUS
 62
     7
 10
 50.500004768371539
 20
-4.8499898279679439
 11
 60.946939229259556
 21
-4.8499898279679439
  0
LINE
  8
0
  6
CONTINUOUS
 62
     7
 10
 59.94693922925957
 20
 39.150010172032111
 11
 59.94693922925957
 21
-4.8499898279679439
  0
LINE
  8
0
  6
CONTINUOUS
 62
     7
 10
 59.94693922925957
 20
 39.150010172032111
 11
 59.17048209395201
 21
 36.252232693164906
  0
LINE
  8
0
  6
CONTINUOUS
 62
     7
 10
 59.94693922925957
 20
 39.150010172032111
 11
 60.72339636456713
 21
 36.252232693164906
  0
LINE
  8
0
  6
CONTINUOUS
 62
     7
 10
 59.94693922925957
 20
-4.8499898279679439
 11
 60.72339636456713
 21
-1.9522123491007388
  0
LINE
  8
0
  6
CONTINUOUS
 62
     7
 10
 59.94693922925957
 20
-4.8499898279679439
 11
 59.17048209395201
 21
-1.9522123491007388
  0
TEXT
  8
0
  6
CONTINUOUS
 62
     7
 10
 58.946939229259563
 20
 15.140010172032081
 11
 58.946939229259563
 21
 19.160010172032084
 40
 2.2000000000000002
 41
 0.8
  1
44
 50
 90.000001535234517
 72
  5
  0
LINE
  8
0
  6
CONTINUOUS
 62
     7
 10
 59.94693922925957
 20
-36.849989827967917
 11
 59.94693922925957
 21
-4.8499898279679439
  0
LINE
  8
0
  6
CONTINUOUS
 62
     7
 10
 59.94693922925957
 20
-36.849989827967917
 11
 60.72339636456713
 21
-33.952212349100712
  0
LINE
  8
0
  6
CONTINUOUS
 62
     7
 10
 59.94693922925957
 20
-36.849989827967917
 11
 59.17048209395201
 21
-33.952212349100712
  0
LINE
  8
0
  6
CONTINUOUS
 62
     7
 10
 59.94693922925957
 20
-4.8499898279679439
 11
 59.17048209395201
 21
-7.7477673068351489
  0
LINE
  8
0
  6
CONTINUOUS
 62
     7
 10
 59.94693922925957
 20
-4.8499898279679439
 11
 60.72339636456713
 21
-7.7477673068351489
  0
TEXT
  8
0
  6
CONTINUOUS
 62
     7
 10
 58.946939229259563
 20
-22.859989827967933
 11
 58.946939229259563
 21
-18.83998982796793
 40
 2.2000000000000002
 41
 0.8
  1
32
 50
 90.000001535234517
 72
  5
  0
LINE
  8
0
  6
CONTINUOUS
 62
     7
 10
 59.94693922925957
 20
 59.150010172032111
 11
 59.94693922925957
 21
 39.150010172032111
  0
LINE
  8
0
  6
CONTINUOUS
 62
     7
 10
 59.94693922925957
 20
 59.150010172032111
 11
 59.17048209395201
 21
 56.252232693164906
  0
LINE
  8
0
  6
CONTINUOUS
 62
     7
 10
 59.94693922925957
 20
 59.150010172032111
 11
 60.72339636456713
 21
 56.252232693164906
  0
LINE
  8
0
  6
CONTINUOUS
 62
     7
 10
 59.94693922925957
 20
 39.150010172032111
 11
 60.72339636456713
 21
 42.047787650899316
  0
LINE
  8
0
  6
CONTINUOUS
 62
     7
 10
 59.94693922925957
 20
 39.150010172032111
 11
 59.17048209395201
 21
 42.047787650899316
  0
TEXT
  8
0
  6
CONTINUOUS
 62
     7
 10
 58.946939229259563
 20
 47.140010172032099
 11
 58.946939229259563
 21
 51.160010172032102
 40
 2.2000000000000002
 41
 0.8
  1
20
 50
 90.000001535234517
 72
  5
  0
LINE
  8
0
  6
CONTINUOUS
 62
     7
 10
 48.500004768371568
 20
 64.150010172032097
 11
 48.500004768371568
 21
 75.418931947930645
  0
LINE
  8
0
  6
CONTINUOUS
 62
     7
 10
-37.499995231628404
 20
 64.150010172032111
 11
-37.499995231628404
 21
 75.418931947930645
  0
LINE
  8
0
  6
CONTINUOUS
 62
     7
 10
 48.500004768371568
 20
 74.418931947930645
 11
-37.499995231628404
 21
 74.418931947930645
  0
LINE
  8
0
  6
CONTINUOUS
 62
     7
 10
 48.500004768371568
 20
 74.418931947930645
 11
 45.602227289504363
 21
 75.195389083238211
  0
LINE
  8
0
  6
CONTINUOUS
 62
     7
 10
 48.500004768371568
 20
 74.418931947930645
 11
 45.602227289504363
 21
 73.642474812623078
  0
LINE
  8
0
  6
CONTINUOUS
 62
     7
 10
-37.499995231628404
 20
 74.418931947930645
 11
-34.602217752761199
 21
 73.642474812623078
  0
LINE
  8
0
  6
CONTINUOUS
 62
     7
 10
-37.499995231628404
 20
 74.418931947930645
 11
-34.602217752761199
 21
 75.195389083238211
  0
TEXT
  8
0
  6
CONTINUOUS
 62
     7
 10
 3.4900047683715831
 20
 75.418931947930631
 11
 7.5100047683715827
 21
 75.418931947930645
 40
 2.2000000000000002
 41
 0.8
  1
86
 50
 0
 72
  5
  0
LINE
  8
0
  6
CONTINUOUS
 62
     7
 10
 45.500004768371554
 20
 64.150010172032097
 11
 45.500004768371554
 21
 70.418931947930645
  0
LINE
  8
0
  6
CONTINUOUS
 62
     7
 10
-34.499995231628404
 20
 64.150010172032111
 11
-34.499995231628404
 21
 70.418931947930645
  0
LINE
  8
0
  6
CONTINUOUS
 62
     7
 10
 45.500004768371554
 20
 69.418931947930645
 11
-34.499995231628404
 21
 69.418931947930645
  0
LINE
  8
0
  6
CONTINUOUS
 62
     7
 10
 45.500004768371554
 20
 69.418931947930645
 11
 42.602227289504349
 21
 70.195389083238211
  0
LINE
  8
0
  6
CONTINUOUS
 62
     7
 10
 45.500004768371554
 20
 69.418931947930645
 11
 42.602227289504349
 21
 68.642474812623078
  0
LINE
  8
0
  6
CONTINUOUS
 62
     7
 10
-34.499995231628404
 20
 69.418931947930645
 11
-31.602217752761199
 21
 68.642474812623078
  0
LINE
  8
0
  6
CONTINUOUS
 62
     7
 10
-34.499995231628404
 20
 69.418931947930645
 11
-31.602217752761199
 21
 70.195389083238211
  0
TEXT
  8
0
  6
CONTINUOUS
 62
     7
 10
 3.4900047683715831
 20
 70.418931947930631
 11
 7.5100047683715827
 21
 70.418931947930645
 40
 2.2000000000000002
 41
 0.8
  1
80
 50
 0
 72
  5
  0
LINE
  8
0
  6
CONTINUOUS
 62
     7
 10
 45.500004768371554
 20
 69.418931947930645
 11
 48.500004768371568
 21
 69.418931947930645
  0
TEXT
  8
0
  6
CONTINUOUS
 62
     7
 10
 50.26000476837158
 20
 70.418931947930631
 11
 52.020004768371578
 21
 70.418931947930645
 40
 2.2000000000000002
 41
 0.8
  1
3
 50
 0
 72
  5
  0
LINE
  8
0
  6
CONTINUOUS
 62
     7
 10
 54.458038595009995
 20
 69.418931947930645
 11
 48.500004768371568
 21
 69.418931947930645
  0
LINE
  8
0
  6
CONTINUOUS
 62
     7
 10
 48.500004768371568
 20
 69.418931947930645
 11
 51.397782247238773
 21
 68.642474812623078
  0
LINE
  8
0
  6
CONTINUOUS
 62
     7
 10
 48.500004768371568
 20
 69.418931947930645
 11
 51.397782247238773
 21
 70.195389083238211
  0
LINE
  8
0
  6
CONTINUOUS
 62
     7
 10
 40.500004768371568
 20
 69.418931947930645
 11
 45.500004768371554
 21
 69.418931947930645
  0
LINE
  8
0
  6
CONTINUOUS
 62
     7
 10
 45.500004768371554
 20
 69.418931947930645
 11
 42.602227289504349
 21
 70.195389083238211
  0
LINE
  8
0
  6
CONTINUOUS
 62
     7
 10
 45.500004768371554
 20
 69.418931947930645
 11
 42.602227289504349
 21
 68.642474812623078
  0
LINE
  8
0
  6
CONTINUOUS
 62
     7
 10
-34.499995231628404
 20
 69.418931947930645
 11
-37.499995231628404
 21
 69.418931947930645
  0
TEXT
  8
0
  6
CONTINUOUS
 62
     7
 10
-41.539995231628403
 20
 70.418931947930631
 11
-39.779995231628405
 21
 70.418931947930645
 40
 2.2000000000000002
 41
 0.8
  1
3
 50
 0
 72
  5
  0
LINE
  8
0
  6
CONTINUOUS
 62
     7
 10
-43.660354639662771
 20
 69.418931947930645
 11
-37.499995231628404
 21
 69.418931947930645
  0
LINE
  8
0
  6
CONTINUOUS
 62
     7
 10
-37.499995231628404
 20
 69.418931947930645
 11
-40.397772710495609
 21
 70.195389083238211
  0
LINE
  8
0
  6
CONTINUOUS
 62
     7
 10
-37.499995231628404
 20
 69.418931947930645
 11
-40.397772710495609
 21
 68.642474812623078
  0
LINE
  8
0
  6
CONTINUOUS
 62
     7
 10
-29.499995231628407
 20
 69.418931947930645
 11
-34.499995231628404
 21
 69.418931947930645
  0
LINE
  8
0
  6
CONTINUOUS
 62
     7
 10
-34.499995231628404
 20
 69.418931947930645
 11
-31.602217752761199
 21
 68.642474812623078
  0
LINE
  8
0
  6
CONTINUOUS
 62
     7
 10
-34.499995231628404
 20
 69.418931947930645
 11
-31.602217752761199
 21
 70.195389083238211
  0
LINE
  8
0
  6
CONTINUOUS
 62
     7
 10
 64.94693922925957
 20
 59.150010172032111
 11
 64.94693922925957
 21
-36.849989827967917
  0
LINE
  8
0
  6
CONTINUOUS
 62
     7
 10
 64.94693922925957
 20
 59.150010172032111
 11
 64.170482093952003
 21
 56.252232693164906
  0
LINE
  8
0
  6
CONTINUOUS
 62
     7
 10
 64.94693922925957
 20
 59.150010172032111
 11
 65.723396364567137
 21
 56.252232693164906
  0
LINE
  8
0
  6
CONTINUOUS
 62
     7
 10
 64.94693922925957
 20
-36.849989827967917
 11
 65.723396364567137
 21
-33.952212349100712
  0
LINE
  8
0
  6
CONTINUOUS
 62
     7
 10
 64.94693922925957
 20
-36.849989827967917
 11
 64.170482093952003
 21
-33.952212349100712
  0
TEXT
  8
0
  6
CONTINUOUS
 62
     7
 10
 63.946939229259577
 20
 9.1400101720320919
 11
 63.946939229259577
 21
 13.160010172032095
 40
 2.2000000000000002
 41
 0.8
  1
96
 50
 90.000001535234517
 72
  5
  0
INSERT
  8
0
  2
CADWIN-G0
 10
0.0
 20
0.0
  0
INSERT
  8
0
  2
CADWIN-G1
 10
0.0
 20
0.0
  0
LINE
  8
256
  6
CONTINUOUS
 62
     7
 10
 3.5
 20
-118.09998805609465
 11
 98.500015258789063
 21
-118.09998805609465
  0
LINE
  8
256
  6
CONTINUOUS
 62
     7
 10
 69.5
 20
-106.09998805609465
 11
 69.5
 21
-118.09998805609465
  0
TEXT
  8
256
  6
CONTINUOUS
 62
     7
 10
 11.000015258789063
 20
-130.84998805609465
 11
 53.000015258789063
 21
-130.84998805609465
 40
 6
 41
 1
  1
Ｉ－４５７２０
 50
 0
 72
  5
  0
TEXT
  8
256
  6
CONTINUOUS
 62
     7
 10
 22.5
 20
-116.34998805609465
 11
 50.5
 21
-116.34998805609465
 40
 5
 41
 0.8
  1
感電危険ラベル
 50
 0
 72
  5
  0
TEXT
  8
256
  6
CONTINUOUS
 62
     7
 10
 4.8000030517578125
 20
-109.04995143500085
 11
 9.8000030517578125
 21
-109.04995143500085
 40
 2.5
 41
 0.8
  1
品名
 50
 0
 72
  5
  0
TEXT
  8
256
  6
CONTINUOUS
 62
     7
 10
 4.8000030517578125
 20
-121.05001857367276
 11
 9.8000030517578125
 21
-121.05001857367276
 40
 2.5
 41
 0.8
  1
品番
 50
 0
 72
  5
  0
LINE
  8
256
  6
CONTINUOUS
 62
     7
 10
 3.5
 20
-136.09998805609465
 11
 3.5
 21
-106.09998805609465
  0
LINE
  8
256
  6
CONTINUOUS
 62
     7
 10
 3.5
 20
-106.09998805609465
 11
 98.500015258789063
 21
-106.09998805609465
  0
LINE
  8
256
  6
CONTINUOUS
 62
     7
 10
 98.500015258789063
 20
-136.09998805609465
 11
-87.500005722045898
 21
-136.09998805609459
  0
TEXT
  8
256
  6
CONTINUOUS
 62
     7
 10
 74.350007629394526
 20
-110.84998805609465
 11
 93.650007629394537
 21
-110.84998805609465
 40
 3.5
 41
 0.8
  1
Ｗ：８６ｍｍ
 50
 0
 72
  5
  0
TEXT
  8
256
  6
CONTINUOUS
 62
     7
 10
 72.700007629394534
 20
-116.84998805609465
 11
 95.300007629394528
 21
-116.84998805609465
 40
 3.5
 41
 0.8
  1
Ｈ：１０２ｍｍ
 50
 0
 72
  5
  0
LINE
  8
256
  6
CONTINUOUS
 62
     7
 10
-87.500005722045898
 20
 128.40000840015884
 11
 12.499994277954102
 21
 128.40000840015884
  0
LINE
  8
256
  6
CONTINUOUS
 62
     7
 10
 12.499994277954102
 20
 128.40000840015887
 11
 12.499994277954102
 21
 140.40000915527344
  0
TEXT
  8
256
  6
CONTINUOUS
 62
     7
 10
-82.500005722045898
 20
 131.40000799208147
 11
-34.500005722045898
 21
 131.40000799208147
 40
 6
 41
 1
  1
Ｉ－４５７２０Ａ
 50
 0
 72
  5
  0
LINE
  8
256
  6
CONTINUOUS
 62
     7
 10
-87.500005722045898
 20
 140.40000915527344
 11
 98.500015258789063
 21
 140.40000915527344
  0
LINE
  8
256
  6
CONTINUOUS
 62
     7
 10
-87.500005722045898
 20
 140.40000915527344
 11
-87.500005722045898
 21
-136.09998805609459
  0
LINE
  8
256
  6
CONTINUOUS
 62
     7
 10
 98.500015258789063
 20
 140.40000915527344
 11
 98.500015258789063
 21
-136.09998805609465
  0
ENDSEC
  0
EOF
