  0
SECTION
  2
HEADER
  9
$INSBASE
 10
0.0
20
0.0
  9
$REGENMODE
 70
     1
  9
$DRAGMODE
 70
     1
  9
$DIMTAD
 70
     1
  9
$EXTMIN
 10
-105.000000
 20
-148.500000
 30
 0.0
  9
$EXTMAX
 10
105.000000
 20
148.500000
 30
 0.0
  9
$LUPREC
 70
    3
  9
$AUPREC
 70
    3
  9
$LTSCALE
 40
13.125000
  0
ENDSEC
  0
SECTION
  2
TABLES
  0
TABLE
  2
LTYPE
 70
     6
  0
LTYPE
  2
CONTINUOUS
 70
    64
  3
SOLID
 72
    65
 73
     0
 40
0.0
  0
LTYPE
  2
DASHED2
 70
    64
  3
_ _ _ _ _ _ _ _ _ _ _ _ _ _ _ _ _ _ _ _ _ _ 
 72
    65
 73
     2
 40
0.5
 49
0.25
 49
-0.25
  0
LTYPE
  2
DASHED
 70
    64
  3
__ __ __ __ __ __ __ __ __ __ __ __ __ __ __
 72
    65
 73
     2
 40
0.75
 49
0.5
 49
-0.25
  0
LTYPE
  2
DASHEDX2
 70
    64
  3
____  ____  ____  ____  ____  ____  ____  __
 72
    65
 73
     2
 40
1.5
 49
1.0
 49
-0.5
  0
LTYPE
  2
DOT
 70
    64
  3
............................................
 72
    65
 73
     2
 40
0.25
 49
0
 49
-0.25
  0
LTYPE
  2
DASHDOT
 70
    64
  3
__ . __ . __ . __ . __ . __ . __ . __ . __ .
 72
    65
 73
     4
 40
1.0
 49
0.5
 49
-0.25
 49
0.0
 49
-0.25
  0
LTYPE
  2
CENTER
 70
    64
  3
____ _ ____ _ ____ _ ____ _ ____ _ ____ _ __
 72
    65
 73
     4
 40
2.0
 49
1.25
 49
-0.25
 49
0.25
 49
-0.25
  0
LTYPE
  2
DIVIDE
 70
    64
  3
__ . . __ . . __ . . __ . . __ . . __ . . __
 72
    65
 73
     6
 40
1.25
 49
0.5
 49
-0.25
 49
0.0
 49
-0.25
 49
0.0
 49
-0.25
  0
LTYPE
  2
PHANTOM2
 70
    64
  3
___ _ _ ___ _ _ ___ _ _ ___ _ _ ___ _ _ ___ 
 72
    65
 73
     6
 40
1.25
 49
0.625
 49
-0.125
 49
0.125
 49
-0.125
 49
0.125
 49
-0.125
  0
LTYPE
  2
DOTX2
 70
    64
  3
. . . . . . . . . . . . . . . . . . . . . . 
 72
    65
 73
     2
 40
0.5
 49
0
 49
-0.5
  0
ENDTAB
  0
TABLE
  2
LAYER
 70
   255
  0
LAYER
  2
0
 70
    64
 62
     7
  6
CONTINUOUS
  0
LAYER
  2
1
 70
    64
 62
     7
  6
CONTINUOUS
  0
LAYER
  2
2
 70
    64
 62
     7
  6
CONTINUOUS
  0
LAYER
  2
3
 70
    64
 62
     7
  6
CONTINUOUS
  0
LAYER
  2
4
 70
    64
 62
     7
  6
CONTINUOUS
  0
LAYER
  2
5
 70
    64
 62
     7
  6
CONTINUOUS
  0
LAYER
  2
6
 70
    64
 62
     7
  6
CONTINUOUS
  0
LAYER
  2
7
 70
    64
 62
     7
  6
CONTINUOUS
  0
LAYER
  2
8
 70
    64
 62
     7
  6
CONTINUOUS
  0
LAYER
  2
9
 70
    64
 62
     7
  6
CONTINUOUS
  0
LAYER
  2
10
 70
    64
 62
     7
  6
CONTINUOUS
  0
LAYER
  2
11
 70
    64
 62
     7
  6
CONTINUOUS
  0
LAYER
  2
12
 70
    64
 62
     7
  6
CONTINUOUS
  0
LAYER
  2
13
 70
    64
 62
     7
  6
CONTINUOUS
  0
LAYER
  2
14
 70
    64
 62
     7
  6
CONTINUOUS
  0
LAYER
  2
15
 70
    64
 62
     7
  6
CONTINUOUS
  0
LAYER
  2
16
 70
    64
 62
     7
  6
CONTINUOUS
  0
LAYER
  2
17
 70
    64
 62
     7
  6
CONTINUOUS
  0
LAYER
  2
18
 70
    64
 62
     7
  6
CONTINUOUS
  0
LAYER
  2
19
 70
    64
 62
     7
  6
CONTINUOUS
  0
LAYER
  2
20
 70
    64
 62
     7
  6
CONTINUOUS
  0
LAYER
  2
21
 70
    64
 62
     7
  6
CONTINUOUS
  0
LAYER
  2
22
 70
    64
 62
     7
  6
CONTINUOUS
  0
LAYER
  2
23
 70
    64
 62
     7
  6
CONTINUOUS
  0
LAYER
  2
24
 70
    64
 62
     7
  6
CONTINUOUS
  0
LAYER
  2
25
 70
    64
 62
     7
  6
CONTINUOUS
  0
LAYER
  2
26
 70
    64
 62
     7
  6
CONTINUOUS
  0
LAYER
  2
27
 70
    64
 62
     7
  6
CONTINUOUS
  0
LAYER
  2
28
 70
    64
 62
     7
  6
CONTINUOUS
  0
LAYER
  2
29
 70
    64
 62
     7
  6
CONTINUOUS
  0
LAYER
  2
30
 70
    64
 62
     7
  6
CONTINUOUS
  0
LAYER
  2
31
 70
    64
 62
     7
  6
CONTINUOUS
  0
LAYER
  2
32
 70
    64
 62
     7
  6
CONTINUOUS
  0
LAYER
  2
33
 70
    64
 62
     7
  6
CONTINUOUS
  0
LAYER
  2
34
 70
    64
 62
     7
  6
CONTINUOUS
  0
LAYER
  2
35
 70
    64
 62
     7
  6
CONTINUOUS
  0
LAYER
  2
36
 70
    64
 62
     7
  6
CONTINUOUS
  0
LAYER
  2
37
 70
    64
 62
     7
  6
CONTINUOUS
  0
LAYER
  2
38
 70
    64
 62
     7
  6
CONTINUOUS
  0
LAYER
  2
39
 70
    64
 62
     7
  6
CONTINUOUS
  0
LAYER
  2
40
 70
    64
 62
     7
  6
CONTINUOUS
  0
LAYER
  2
41
 70
    64
 62
     7
  6
CONTINUOUS
  0
LAYER
  2
42
 70
    64
 62
     7
  6
CONTINUOUS
  0
LAYER
  2
43
 70
    64
 62
     7
  6
CONTINUOUS
  0
LAYER
  2
44
 70
    64
 62
     7
  6
CONTINUOUS
  0
LAYER
  2
45
 70
    64
 62
     7
  6
CONTINUOUS
  0
LAYER
  2
46
 70
    64
 62
     7
  6
CONTINUOUS
  0
LAYER
  2
47
 70
    64
 62
     7
  6
CONTINUOUS
  0
LAYER
  2
48
 70
    64
 62
     7
  6
CONTINUOUS
  0
LAYER
  2
49
 70
    64
 62
     7
  6
CONTINUOUS
  0
LAYER
  2
50
 70
    64
 62
     7
  6
CONTINUOUS
  0
LAYER
  2
51
 70
    64
 62
     7
  6
CONTINUOUS
  0
LAYER
  2
52
 70
    64
 62
     7
  6
CONTINUOUS
  0
LAYER
  2
53
 70
    64
 62
     7
  6
CONTINUOUS
  0
LAYER
  2
54
 70
    64
 62
     7
  6
CONTINUOUS
  0
LAYER
  2
55
 70
    64
 62
     7
  6
CONTINUOUS
  0
LAYER
  2
56
 70
    64
 62
     7
  6
CONTINUOUS
  0
LAYER
  2
57
 70
    64
 62
     7
  6
CONTINUOUS
  0
LAYER
  2
58
 70
    64
 62
     7
  6
CONTINUOUS
  0
LAYER
  2
59
 70
    64
 62
     7
  6
CONTINUOUS
  0
LAYER
  2
60
 70
    64
 62
     7
  6
CONTINUOUS
  0
LAYER
  2
61
 70
    64
 62
     7
  6
CONTINUOUS
  0
LAYER
  2
62
 70
    64
 62
     7
  6
CONTINUOUS
  0
LAYER
  2
63
 70
    64
 62
     7
  6
CONTINUOUS
  0
LAYER
  2
64
 70
    64
 62
     7
  6
CONTINUOUS
  0
LAYER
  2
65
 70
    64
 62
     7
  6
CONTINUOUS
  0
LAYER
  2
66
 70
    64
 62
     7
  6
CONTINUOUS
  0
LAYER
  2
67
 70
    64
 62
     7
  6
CONTINUOUS
  0
LAYER
  2
68
 70
    64
 62
     7
  6
CONTINUOUS
  0
LAYER
  2
69
 70
    64
 62
     7
  6
CONTINUOUS
  0
LAYER
  2
70
 70
    64
 62
     7
  6
CONTINUOUS
  0
LAYER
  2
71
 70
    64
 62
     7
  6
CONTINUOUS
  0
LAYER
  2
72
 70
    64
 62
     7
  6
CONTINUOUS
  0
LAYER
  2
73
 70
    64
 62
     7
  6
CONTINUOUS
  0
LAYER
  2
74
 70
    64
 62
     7
  6
CONTINUOUS
  0
LAYER
  2
75
 70
    64
 62
     7
  6
CONTINUOUS
  0
LAYER
  2
76
 70
    64
 62
     7
  6
CONTINUOUS
  0
LAYER
  2
77
 70
    64
 62
     7
  6
CONTINUOUS
  0
LAYER
  2
78
 70
    64
 62
     7
  6
CONTINUOUS
  0
LAYER
  2
79
 70
    64
 62
     7
  6
CONTINUOUS
  0
LAYER
  2
80
 70
    64
 62
     7
  6
CONTINUOUS
  0
LAYER
  2
81
 70
    64
 62
     7
  6
CONTINUOUS
  0
LAYER
  2
82
 70
    64
 62
     7
  6
CONTINUOUS
  0
LAYER
  2
83
 70
    64
 62
     7
  6
CONTINUOUS
  0
LAYER
  2
84
 70
    64
 62
     7
  6
CONTINUOUS
  0
LAYER
  2
85
 70
    64
 62
     7
  6
CONTINUOUS
  0
LAYER
  2
86
 70
    64
 62
     7
  6
CONTINUOUS
  0
LAYER
  2
87
 70
    64
 62
     7
  6
CONTINUOUS
  0
LAYER
  2
88
 70
    64
 62
     7
  6
CONTINUOUS
  0
LAYER
  2
89
 70
    64
 62
     7
  6
CONTINUOUS
  0
LAYER
  2
90
 70
    64
 62
     7
  6
CONTINUOUS
  0
LAYER
  2
91
 70
    64
 62
     7
  6
CONTINUOUS
  0
LAYER
  2
92
 70
    64
 62
     7
  6
CONTINUOUS
  0
LAYER
  2
93
 70
    64
 62
     7
  6
CONTINUOUS
  0
LAYER
  2
94
 70
    64
 62
     7
  6
CONTINUOUS
  0
LAYER
  2
95
 70
    64
 62
     7
  6
CONTINUOUS
  0
LAYER
  2
96
 70
    64
 62
     7
  6
CONTINUOUS
  0
LAYER
  2
97
 70
    64
 62
     7
  6
CONTINUOUS
  0
LAYER
  2
98
 70
    64
 62
     7
  6
CONTINUOUS
  0
LAYER
  2
99
 70
    64
 62
     7
  6
CONTINUOUS
  0
LAYER
  2
100
 70
    64
 62
     7
  6
CONTINUOUS
  0
LAYER
  2
101
 70
    64
 62
     7
  6
CONTINUOUS
  0
LAYER
  2
102
 70
    64
 62
     7
  6
CONTINUOUS
  0
LAYER
  2
103
 70
    64
 62
     7
  6
CONTINUOUS
  0
LAYER
  2
104
 70
    64
 62
     7
  6
CONTINUOUS
  0
LAYER
  2
105
 70
    64
 62
     7
  6
CONTINUOUS
  0
LAYER
  2
106
 70
    64
 62
     7
  6
CONTINUOUS
  0
LAYER
  2
107
 70
    64
 62
     7
  6
CONTINUOUS
  0
LAYER
  2
108
 70
    64
 62
     7
  6
CONTINUOUS
  0
LAYER
  2
109
 70
    64
 62
     7
  6
CONTINUOUS
  0
LAYER
  2
110
 70
    64
 62
     7
  6
CONTINUOUS
  0
LAYER
  2
111
 70
    64
 62
     7
  6
CONTINUOUS
  0
LAYER
  2
112
 70
    64
 62
     7
  6
CONTINUOUS
  0
LAYER
  2
113
 70
    64
 62
     7
  6
CONTINUOUS
  0
LAYER
  2
114
 70
    64
 62
     7
  6
CONTINUOUS
  0
LAYER
  2
115
 70
    64
 62
     7
  6
CONTINUOUS
  0
LAYER
  2
116
 70
    64
 62
     7
  6
CONTINUOUS
  0
LAYER
  2
117
 70
    64
 62
     7
  6
CONTINUOUS
  0
LAYER
  2
118
 70
    64
 62
     7
  6
CONTINUOUS
  0
LAYER
  2
119
 70
    64
 62
     7
  6
CONTINUOUS
  0
LAYER
  2
120
 70
    64
 62
     7
  6
CONTINUOUS
  0
LAYER
  2
121
 70
    64
 62
     7
  6
CONTINUOUS
  0
LAYER
  2
122
 70
    64
 62
     7
  6
CONTINUOUS
  0
LAYER
  2
123
 70
    64
 62
     7
  6
CONTINUOUS
  0
LAYER
  2
124
 70
    64
 62
     7
  6
CONTINUOUS
  0
LAYER
  2
125
 70
    64
 62
     7
  6
CONTINUOUS
  0
LAYER
  2
126
 70
    64
 62
     7
  6
CONTINUOUS
  0
LAYER
  2
127
 70
    64
 62
     7
  6
CONTINUOUS
  0
LAYER
  2
128
 70
    64
 62
     7
  6
CONTINUOUS
  0
LAYER
  2
129
 70
    64
 62
     7
  6
CONTINUOUS
  0
LAYER
  2
130
 70
    64
 62
     7
  6
CONTINUOUS
  0
LAYER
  2
131
 70
    64
 62
     7
  6
CONTINUOUS
  0
LAYER
  2
132
 70
    64
 62
     7
  6
CONTINUOUS
  0
LAYER
  2
133
 70
    64
 62
     7
  6
CONTINUOUS
  0
LAYER
  2
134
 70
    64
 62
     7
  6
CONTINUOUS
  0
LAYER
  2
135
 70
    64
 62
     7
  6
CONTINUOUS
  0
LAYER
  2
136
 70
    64
 62
     7
  6
CONTINUOUS
  0
LAYER
  2
137
 70
    64
 62
     7
  6
CONTINUOUS
  0
LAYER
  2
138
 70
    64
 62
     7
  6
CONTINUOUS
  0
LAYER
  2
139
 70
    64
 62
     7
  6
CONTINUOUS
  0
LAYER
  2
140
 70
    64
 62
     7
  6
CONTINUOUS
  0
LAYER
  2
141
 70
    64
 62
     7
  6
CONTINUOUS
  0
LAYER
  2
142
 70
    64
 62
     7
  6
CONTINUOUS
  0
LAYER
  2
143
 70
    64
 62
     7
  6
CONTINUOUS
  0
LAYER
  2
144
 70
    64
 62
     7
  6
CONTINUOUS
  0
LAYER
  2
145
 70
    64
 62
     7
  6
CONTINUOUS
  0
LAYER
  2
146
 70
    64
 62
     7
  6
CONTINUOUS
  0
LAYER
  2
147
 70
    64
 62
     7
  6
CONTINUOUS
  0
LAYER
  2
148
 70
    64
 62
     7
  6
CONTINUOUS
  0
LAYER
  2
149
 70
    64
 62
     7
  6
CONTINUOUS
  0
LAYER
  2
150
 70
    64
 62
     7
  6
CONTINUOUS
  0
LAYER
  2
151
 70
    64
 62
     7
  6
CONTINUOUS
  0
LAYER
  2
152
 70
    64
 62
     7
  6
CONTINUOUS
  0
LAYER
  2
153
 70
    64
 62
     7
  6
CONTINUOUS
  0
LAYER
  2
154
 70
    64
 62
     7
  6
CONTINUOUS
  0
LAYER
  2
155
 70
    64
 62
     7
  6
CONTINUOUS
  0
LAYER
  2
156
 70
    64
 62
     7
  6
CONTINUOUS
  0
LAYER
  2
157
 70
    64
 62
     7
  6
CONTINUOUS
  0
LAYER
  2
158
 70
    64
 62
     7
  6
CONTINUOUS
  0
LAYER
  2
159
 70
    64
 62
     7
  6
CONTINUOUS
  0
LAYER
  2
160
 70
    64
 62
     7
  6
CONTINUOUS
  0
LAYER
  2
161
 70
    64
 62
     7
  6
CONTINUOUS
  0
LAYER
  2
162
 70
    64
 62
     7
  6
CONTINUOUS
  0
LAYER
  2
163
 70
    64
 62
     7
  6
CONTINUOUS
  0
LAYER
  2
164
 70
    64
 62
     7
  6
CONTINUOUS
  0
LAYER
  2
165
 70
    64
 62
     7
  6
CONTINUOUS
  0
LAYER
  2
166
 70
    64
 62
     7
  6
CONTINUOUS
  0
LAYER
  2
167
 70
    64
 62
     7
  6
CONTINUOUS
  0
LAYER
  2
168
 70
    64
 62
     7
  6
CONTINUOUS
  0
LAYER
  2
169
 70
    64
 62
     7
  6
CONTINUOUS
  0
LAYER
  2
170
 70
    64
 62
     7
  6
CONTINUOUS
  0
LAYER
  2
171
 70
    64
 62
     7
  6
CONTINUOUS
  0
LAYER
  2
172
 70
    64
 62
     7
  6
CONTINUOUS
  0
LAYER
  2
173
 70
    64
 62
     7
  6
CONTINUOUS
  0
LAYER
  2
174
 70
    64
 62
     7
  6
CONTINUOUS
  0
LAYER
  2
175
 70
    64
 62
     7
  6
CONTINUOUS
  0
LAYER
  2
176
 70
    64
 62
     7
  6
CONTINUOUS
  0
LAYER
  2
177
 70
    64
 62
     7
  6
CONTINUOUS
  0
LAYER
  2
178
 70
    64
 62
     7
  6
CONTINUOUS
  0
LAYER
  2
179
 70
    64
 62
     7
  6
CONTINUOUS
  0
LAYER
  2
180
 70
    64
 62
     7
  6
CONTINUOUS
  0
LAYER
  2
181
 70
    64
 62
     7
  6
CONTINUOUS
  0
LAYER
  2
182
 70
    64
 62
     7
  6
CONTINUOUS
  0
LAYER
  2
183
 70
    64
 62
     7
  6
CONTINUOUS
  0
LAYER
  2
184
 70
    64
 62
     7
  6
CONTINUOUS
  0
LAYER
  2
185
 70
    64
 62
     7
  6
CONTINUOUS
  0
LAYER
  2
186
 70
    64
 62
     7
  6
CONTINUOUS
  0
LAYER
  2
187
 70
    64
 62
     7
  6
CONTINUOUS
  0
LAYER
  2
188
 70
    64
 62
     7
  6
CONTINUOUS
  0
LAYER
  2
189
 70
    64
 62
     7
  6
CONTINUOUS
  0
LAYER
  2
190
 70
    64
 62
     7
  6
CONTINUOUS
  0
LAYER
  2
191
 70
    64
 62
     7
  6
CONTINUOUS
  0
LAYER
  2
192
 70
    64
 62
     7
  6
CONTINUOUS
  0
LAYER
  2
193
 70
    64
 62
     7
  6
CONTINUOUS
  0
LAYER
  2
194
 70
    64
 62
     7
  6
CONTINUOUS
  0
LAYER
  2
195
 70
    64
 62
     7
  6
CONTINUOUS
  0
LAYER
  2
196
 70
    64
 62
     7
  6
CONTINUOUS
  0
LAYER
  2
197
 70
    64
 62
     7
  6
CONTINUOUS
  0
LAYER
  2
198
 70
    64
 62
     7
  6
CONTINUOUS
  0
LAYER
  2
199
 70
    64
 62
     7
  6
CONTINUOUS
  0
LAYER
  2
200
 70
    64
 62
     7
  6
CONTINUOUS
  0
LAYER
  2
201
 70
    64
 62
     7
  6
CONTINUOUS
  0
LAYER
  2
202
 70
    64
 62
     7
  6
CONTINUOUS
  0
LAYER
  2
203
 70
    64
 62
     7
  6
CONTINUOUS
  0
LAYER
  2
204
 70
    64
 62
     7
  6
CONTINUOUS
  0
LAYER
  2
205
 70
    64
 62
     7
  6
CONTINUOUS
  0
LAYER
  2
206
 70
    64
 62
     7
  6
CONTINUOUS
  0
LAYER
  2
207
 70
    64
 62
     7
  6
CONTINUOUS
  0
LAYER
  2
208
 70
    64
 62
     7
  6
CONTINUOUS
  0
LAYER
  2
209
 70
    64
 62
     7
  6
CONTINUOUS
  0
LAYER
  2
210
 70
    64
 62
     7
  6
CONTINUOUS
  0
LAYER
  2
211
 70
    64
 62
     7
  6
CONTINUOUS
  0
LAYER
  2
212
 70
    64
 62
     7
  6
CONTINUOUS
  0
LAYER
  2
213
 70
    64
 62
     7
  6
CONTINUOUS
  0
LAYER
  2
214
 70
    64
 62
     7
  6
CONTINUOUS
  0
LAYER
  2
215
 70
    64
 62
     7
  6
CONTINUOUS
  0
LAYER
  2
216
 70
    64
 62
     7
  6
CONTINUOUS
  0
LAYER
  2
217
 70
    64
 62
     7
  6
CONTINUOUS
  0
LAYER
  2
218
 70
    64
 62
     7
  6
CONTINUOUS
  0
LAYER
  2
219
 70
    64
 62
     7
  6
CONTINUOUS
  0
LAYER
  2
220
 70
    64
 62
     7
  6
CONTINUOUS
  0
LAYER
  2
221
 70
    64
 62
     7
  6
CONTINUOUS
  0
LAYER
  2
222
 70
    64
 62
     7
  6
CONTINUOUS
  0
LAYER
  2
223
 70
    64
 62
     7
  6
CONTINUOUS
  0
LAYER
  2
224
 70
    64
 62
     7
  6
CONTINUOUS
  0
LAYER
  2
225
 70
    64
 62
     7
  6
CONTINUOUS
  0
LAYER
  2
226
 70
    64
 62
     7
  6
CONTINUOUS
  0
LAYER
  2
227
 70
    64
 62
     7
  6
CONTINUOUS
  0
LAYER
  2
228
 70
    64
 62
     7
  6
CONTINUOUS
  0
LAYER
  2
229
 70
    64
 62
     7
  6
CONTINUOUS
  0
LAYER
  2
230
 70
    64
 62
     7
  6
CONTINUOUS
  0
LAYER
  2
231
 70
    64
 62
     7
  6
CONTINUOUS
  0
LAYER
  2
232
 70
    64
 62
     7
  6
CONTINUOUS
  0
LAYER
  2
233
 70
    64
 62
     7
  6
CONTINUOUS
  0
LAYER
  2
234
 70
    64
 62
     7
  6
CONTINUOUS
  0
LAYER
  2
235
 70
    64
 62
     7
  6
CONTINUOUS
  0
LAYER
  2
236
 70
    64
 62
     7
  6
CONTINUOUS
  0
LAYER
  2
237
 70
    64
 62
     7
  6
CONTINUOUS
  0
LAYER
  2
238
 70
    64
 62
     7
  6
CONTINUOUS
  0
LAYER
  2
239
 70
    64
 62
     7
  6
CONTINUOUS
  0
LAYER
  2
240
 70
    64
 62
     7
  6
CONTINUOUS
  0
LAYER
  2
241
 70
    64
 62
     7
  6
CONTINUOUS
  0
LAYER
  2
242
 70
    64
 62
     7
  6
CONTINUOUS
  0
LAYER
  2
243
 70
    64
 62
     7
  6
CONTINUOUS
  0
LAYER
  2
244
 70
    64
 62
     7
  6
CONTINUOUS
  0
LAYER
  2
245
 70
    64
 62
     7
  6
CONTINUOUS
  0
LAYER
  2
246
 70
    64
 62
     7
  6
CONTINUOUS
  0
LAYER
  2
247
 70
    64
 62
     7
  6
CONTINUOUS
  0
LAYER
  2
248
 70
    64
 62
     7
  6
CONTINUOUS
  0
LAYER
  2
249
 70
    64
 62
     7
  6
CONTINUOUS
  0
LAYER
  2
250
 70
    64
 62
     7
  6
CONTINUOUS
  0
LAYER
  2
251
 70
    64
 62
     7
  6
CONTINUOUS
  0
LAYER
  2
252
 70
    64
 62
     7
  6
CONTINUOUS
  0
LAYER
  2
253
 70
    64
 62
     7
  6
CONTINUOUS
  0
LAYER
  2
254
 70
    64
 62
     7
  6
CONTINUOUS
  0
LAYER
  2
255
 70
    64
 62
     7
  6
CONTINUOUS
  0
ENDTAB
  0
TABLE
  2
STYLE
 70
     2
  0
STYLE
  2
STANDARD
 70
    64
 40
0.0
 41
1.0
 50
0.0
 71
     0
 42
3.000000
  3
TXT
  4
BIGFONT
  0
ENDTAB
  0
ENDSEC
  0
SECTION
  2
BLOCKS
  0
BLOCK
  8
0
  2
CADWIN-G0
 70
    0
 10
0.0
 20
0.0
  0
LINE
  8
0
  6
CONTINUOUS
 62
     3
 10
-2.716102965155649
 20
 11.792620674744295
 11
 13.819795419706615
 21
 11.792620674744295
  0
ARC
  8
0
  6
CONTINUOUS
 62
     3
 10
-2.716102965155649
 20
 12.792620674744295
 40
 1
 50
 150.00000255872399
 51
-90.000001535234532
  0
ARC
  8
0
  6
CONTINUOUS
 62
     3
 10
 13.819795419706615
 20
 12.792620674744295
 40
 1
 50
-90.000001535234816
 51
 30.000000511744783
  0
LINE
  8
0
  6
CONTINUOUS
 62
     3
 10
-3.5821283689400687
 20
 13.292620674744295
 11
 4.6858208234910634
 21
 27.613128750433088
  0
LINE
  8
0
  6
CONTINUOUS
 62
     3
 10
 6.4178716310599313
 20
 27.613128750433088
 11
 14.685820823491007
 21
 13.292620674744295
  0
ARC
  8
0
  6
CONTINUOUS
 62
     3
 10
 5.5518462272754547
 20
 27.113128750433088
 40
 1
 50
 30.000000511744894
 51
 150.00000255872422
  0
LINE
  8
0
  6
CONTINUOUS
 62
     3
 10
 5.5518462272754547
 20
 27.113128750433059
 11
-2.716102965155649
 21
 12.792620674744295
  0
LINE
  8
0
  6
CONTINUOUS
 62
     3
 10
-2.716102965155649
 20
 12.792620674744295
 11
 13.819795419706615
 21
 12.792620674744295
  0
LINE
  8
0
  6
CONTINUOUS
 62
     3
 10
 5.5518462272754547
 20
 27.113128750433059
 11
 13.819795419706615
 21
 12.792620674744295
  0
LINE
  8
0
  6
CONTINUOUS
 62
     7
 10
-1.0084092110481109
 20
 11.792620674744295
 11
-0.0084092110481109
 21
 12.792620674744295
  0
LINE
  8
0
  6
CONTINUOUS
 62
     7
 10
 8.7583212361207856
 20
 21.559351121913192
 11
 9.4903720436896251
 21
 22.291401929482031
  0
LINE
  8
0
  6
CONTINUOUS
 62
     7
 10
-1.2346848458137245
 20
 11.792620674744295
 11
-0.2346848458137245
 21
 12.792620674744295
  0
LINE
  8
0
  6
CONTINUOUS
 62
     7
 10
 8.6754986055391257
 20
 21.702804126097146
 11
 9.4075494131079935
 21
 22.434854933666042
  0
LINE
  8
0
  6
CONTINUOUS
 62
     7
 10
-1.4609604805793666
 20
 11.792620674744295
 11
-0.4609604805793666
 21
 12.792620674744295
  0
LINE
  8
0
  6
CONTINUOUS
 62
     7
 10
 8.5926759749574373
 20
 21.846257130281099
 11
 9.3247267825263336
 21
 22.578307937849967
  0
LINE
  8
0
  6
CONTINUOUS
 62
     7
 10
-1.6872361153449802
 20
 11.792620674744295
 11
-0.6872361153449802
 21
 12.792620674744295
  0
LINE
  8
0
  6
CONTINUOUS
 62
     7
 10
 8.5098533443757489
 20
 21.989710134465053
 11
 9.2419041519446452
 21
 22.721760942033921
  0
LINE
  8
0
  6
CONTINUOUS
 62
     7
 10
-1.9135117501106222
 20
 11.792620674744295
 11
-0.9135117501106222
 21
 12.792620674744295
  0
LINE
  8
0
  6
CONTINUOUS
 62
     7
 10
 8.427030713794089
 20
 22.133163138648978
 11
 9.1590815213629568
 21
 22.865213946217875
  0
LINE
  8
0
  6
CONTINUOUS
 62
     7
 10
-2.1397873848762359
 20
 11.792620674744295
 11
-1.1397873848762359
 21
 12.792620674744295
  0
LINE
  8
0
  6
CONTINUOUS
 62
     7
 10
 8.3442080832124574
 20
 22.276616142832989
 11
 9.0762588907812969
 21
 23.008666950401828
  0
LINE
  8
0
  6
CONTINUOUS
 62
     7
 10
-2.3660630196418495
 20
 11.792620674744295
 11
-1.3660630196418495
 21
 12.792620674744295
  0
LINE
  8
0
  6
CONTINUOUS
 62
     7
 10
 8.2613854526307691
 20
 22.420069147016942
 11
 8.9934362601996654
 21
 23.15211995458581
  0
LINE
  8
0
  6
CONTINUOUS
 62
     7
 10
-2.5923386544074916
 20
 11.792620674744295
 11
-1.5923386544074916
 21
 12.792620674744295
  0
LINE
  8
0
  6
CONTINUOUS
 62
     7
 10
 8.1785628220491091
 20
 22.563522151200868
 11
 8.910613629617977
 21
 23.295572958769764
  0
LINE
  8
0
  6
CONTINUOUS
 62
     7
 10
-2.8138283781215492
 20
 11.797406585795965
 11
-1.8186142891731052
 21
 12.792620674744295
  0
LINE
  8
0
  6
CONTINUOUS
 62
     7
 10
 8.0957401914674207
 20
 22.706975155384821
 11
 8.827790999036317
 21
 23.439025962953718
  0
LINE
  8
0
  6
CONTINUOUS
 62
     7
 10
-3.002886214659533
 20
 11.834624384023538
 11
-2.0448899239387472
 21
 12.792620674744295
  0
LINE
  8
0
  6
CONTINUOUS
 62
     7
 10
 8.0129175608857324
 20
 22.850428159568775
 11
 8.7449683684546287
 21
 23.582478967137671
  0
LINE
  8
0
  6
CONTINUOUS
 62
     7
 10
-3.1648335605790763
 20
 11.898952672869665
 11
-2.2711655587043609
 21
 12.792620674744295
  0
LINE
  8
0
  6
CONTINUOUS
 62
     7
 10
 7.9300949303040724
 20
 22.993881163752729
 11
 8.6621457378729403
 21
 23.725931971321597
  0
LINE
  8
0
  6
CONTINUOUS
 62
     7
 10
-3.3053761255377268
 20
 11.984685742676543
 11
-2.4974411934699745
 21
 12.792620674744295
  0
LINE
  8
0
  6
CONTINUOUS
 62
     7
 10
 7.8472722997224409
 20
 23.137334167936711
 11
 8.5793231072913088
 21
 23.869384975505607
  0
LINE
  8
0
  6
CONTINUOUS
 62
     7
 10
-3.4270070425531927
 20
 12.089330460426776
 11
-2.7057022347675073
 21
 12.810635268212405
  0
LINE
  8
0
  6
CONTINUOUS
 62
     7
 10
 7.7644496691407525
 20
 23.280787172120665
 11
 8.4965004767096488
 21
 24.012837979689561
  0
LINE
  8
0
  6
CONTINUOUS
 62
     7
 10
-3.5304176160588909
 20
 12.212195521686692
 11
-2.3966039694202337
 21
 13.346009168325292
  0
LINE
  8
0
  6
CONTINUOUS
 62
     7
 10
 7.6816270385590926
 20
 23.424240176304618
 11
 8.4136778461279604
 21
 24.156290983873486
  0
LINE
  8
0
  6
CONTINUOUS
 62
     7
 10
-3.6148131048928249
 20
 12.354075667618371
 11
-2.0875057040729317
 21
 13.881383068438208
  0
LINE
  8
0
  6
CONTINUOUS
 62
     7
 10
 7.5988044079774042
 20
 23.567693180488572
 11
 8.3308552155463005
 21
 24.29974398805744
  0
LINE
  8
0
  6
CONTINUOUS
 62
     7
 10
-3.6775470346823695
 20
 12.517617372594497
 11
-1.7784074387256297
 21
 14.416756968551152
  0
LINE
  8
0
  6
CONTINUOUS
 62
     7
 10
 7.5159817773957158
 20
 23.711146184672497
 11
 8.2480325849646121
 21
 24.443196992241393
  0
LINE
  8
0
  6
CONTINUOUS
 62
     7
 10
-3.7125887938616771
 20
 12.708851248180803
 11
-1.4693091733783277
 21
 14.952130868664067
  0
LINE
  8
0
  6
CONTINUOUS
 62
     7
 10
 7.4331591468140843
 20
 23.854599188856508
 11
 8.1652099543829806
 21
 24.586649996425376
  0
LINE
  8
0
  6
CONTINUOUS
 62
     7
 10
-3.7047347593824398
 20
 12.942980917425597
 11
-1.1602109080310257
 21
 15.487504768777011
  0
LINE
  8
0
  6
CONTINUOUS
 62
     7
 10
 7.3503365162324243
 20
 23.998052193040461
 11
 8.0823873238012922
 21
 24.730103000609329
  0
LINE
  8
0
  6
CONTINUOUS
 62
     7
 10
-3.5831582534922077
 20
 13.2908330580815
 11
-0.8511126426837237
 21
 16.022878668889927
  0
LINE
  8
0
  6
CONTINUOUS
 62
     7
 10
 7.267513885650736
 20
 24.141505197224387
 11
 7.9995646932196323
 21
 24.873556004793283
  0
LINE
  8
0
  6
CONTINUOUS
 62
     7
 10
-3.2740651849052611
 20
 13.826201761434003
 11
-0.5420143773364785
 21
 16.558252569002814
  0
LINE
  8
0
  6
CONTINUOUS
 62
     7
 10
 7.184691255069076
 20
 24.28495820140834
 11
 7.9167420626379439
 21
 25.017009008977237
  0
LINE
  8
0
  6
CONTINUOUS
 62
     7
 10
-2.9649669195579591
 20
 14.361575661546947
 11
-0.2329161119891765
 21
 17.09362646911573
  0
LINE
  8
0
  6
CONTINUOUS
 62
     7
 10
 7.1018686244873876
 20
 24.428411205592294
 11
 7.8339194320563124
 21
 25.160462013161219
  0
LINE
  8
0
  6
CONTINUOUS
 62
     7
 10
-2.6558686542106571
 20
 14.896949561659863
 11
 0.0761821533581255
 21
 17.629000369228674
  0
LINE
  8
0
  6
CONTINUOUS
 62
     7
 10
 7.0190459939057561
 20
 24.571864209776276
 11
 7.7510968014746524
 21
 25.303915017345172
  0
LINE
  8
0
  6
CONTINUOUS
 62
     7
 10
-2.3467703888633551
 20
 15.432323461772807
 11
 0.3852804187054275
 21
 18.164374269341589
  0
LINE
  8
0
  6
CONTINUOUS
 62
     7
 10
 6.9362233633240677
 20
 24.71531721396023
 11
 7.668274170892964
 21
 25.447368021529126
  0
LINE
  8
0
  6
CONTINUOUS
 62
     7
 10
-2.0376721235160531
 20
 15.967697361885723
 11
 0.6943786840527295
 21
 18.699748169454505
  0
LINE
  8
0
  6
CONTINUOUS
 62
     7
 10
 6.8534007327424078
 20
 24.858770218144183
 11
 7.5854515403112757
 21
 25.59082102571308
  0
LINE
  8
0
  6
CONTINUOUS
 62
     7
 10
-1.7285738581688079
 20
 16.50307126199861
 11
 1.0034769494000031
 21
 19.235122069567392
  0
LINE
  8
0
  6
CONTINUOUS
 62
     7
 10
 6.7705781021607194
 20
 25.002223222328137
 11
 7.5026289097296157
 21
 25.734274029897005
  0
LINE
  8
0
  6
CONTINUOUS
 62
     7
 10
-1.4194755928215059
 20
 17.038445162111525
 11
 1.3125752147473051
 21
 19.770495969680336
  0
LINE
  8
0
  6
CONTINUOUS
 62
     7
 10
 6.6877554715790595
 20
 25.145676226512091
 11
 7.4198062791479842
 21
 25.877727034081015
  0
LINE
  8
0
  6
CONTINUOUS
 62
     7
 10
-1.1103773274742039
 20
 17.573819062224469
 11
 1.6216734800946071
 21
 20.305869869793252
  0
LINE
  8
0
  6
CONTINUOUS
 62
     7
 10
 6.6049328409974279
 20
 25.289129230696073
 11
 7.3369836485662958
 21
 26.021180038264969
  0
LINE
  8
0
  6
CONTINUOUS
 62
     7
 10
-0.8012790621269019
 20
 18.109192962337385
 11
 1.9307717454419091
 21
 20.841243769906168
  0
LINE
  8
0
  6
CONTINUOUS
 62
     7
 10
 6.5221102104157396
 20
 25.432582234880027
 11
 7.2541610179846359
 21
 26.164633042448894
  0
LINE
  8
0
  6
CONTINUOUS
 62
     7
 10
-0.4921807967795999
 20
 18.644566862450301
 11
 2.2398700107892111
 21
 21.376617670019112
  0
LINE
  8
0
  6
CONTINUOUS
 62
     7
 10
 6.4392875798340512
 20
 25.57603523906398
 11
 7.1713383874029475
 21
 26.308086046632848
  0
LINE
  8
0
  6
CONTINUOUS
 62
     7
 10
-0.1830825314323263
 20
 19.179940762563188
 11
 2.5489682761364563
 21
 21.911991570131999
  0
LINE
  8
0
  6
CONTINUOUS
 62
     7
 10
 6.3564649492523912
 20
 25.719488243247906
 11
 7.0885157568212591
 21
 26.451539050816802
  0
LINE
  8
0
  6
CONTINUOUS
 62
     7
 10
 0.1260157339149757
 20
 19.715314662676132
 11
 2.8580665414837583
 21
 22.447365470244915
  0
LINE
  8
0
  6
CONTINUOUS
 62
     7
 10
 6.2736423186707029
 20
 25.862941247431859
 11
 7.0056931262396276
 21
 26.594992055000784
  0
LINE
  8
0
  6
CONTINUOUS
 62
     7
 10
 0.4351139992622777
 20
 20.250688562789048
 11
 3.1671648068310603
 21
 22.98273937035783
  0
LINE
  8
0
  6
CONTINUOUS
 62
     7
 10
 6.1908196880890429
 20
 26.006394251615813
 11
 6.9228704956579676
 21
 26.738445059184738
  0
LINE
  8
0
  6
CONTINUOUS
 62
     7
 10
 0.7442122646095797
 20
 20.786062462901963
 11
 3.4762630721783623
 21
 23.518113270470774
  0
LINE
  8
0
  6
CONTINUOUS
 62
     7
 10
 6.1079970575074114
 20
 26.149847255799795
 11
 6.8400478650762793
 21
 26.881898063368691
  0
LINE
  8
0
  6
CONTINUOUS
 62
     7
 10
 1.0533105299568817
 20
 21.321436363014907
 11
 3.7853613375256643
 21
 24.05348717058369
  0
LINE
  8
0
  6
CONTINUOUS
 62
     7
 10
 6.025174426925723
 20
 26.293300259983749
 11
 6.7572252344946193
 21
 27.025351067552645
  0
LINE
  8
0
  6
CONTINUOUS
 62
     7
 10
 1.3624087953041268
 20
 21.856810263127795
 11
 4.0944596028729094
 21
 24.588861070696577
  0
LINE
  8
0
  6
CONTINUOUS
 62
     7
 10
 5.9423517963440347
 20
 26.436753264167702
 11
 6.6744026039129309
 21
 27.168804071736599
  0
LINE
  8
0
  6
CONTINUOUS
 62
     7
 10
 1.6715070606514288
 20
 22.39218416324071
 11
 4.4035578682202114
 21
 25.124234970809493
  0
LINE
  8
0
  6
CONTINUOUS
 62
     7
 10
 5.8595291657623747
 20
 26.580206268351656
 11
 6.5915799733312994
 21
 27.312257075920581
  0
LINE
  8
0
  6
CONTINUOUS
 62
     7
 10
 1.9806053259987308
 20
 22.927558063353626
 11
 4.7126561335675135
 21
 25.659608870922437
  0
LINE
  8
0
  6
CONTINUOUS
 62
     7
 10
 5.7767065351806863
 20
 26.72365927253561
 11
 6.508757342749611
 21
 27.455710080104534
  0
LINE
  8
0
  6
CONTINUOUS
 62
     7
 10
 2.2897035913460329
 20
 23.46293196346657
 11
 5.0217543989148155
 21
 26.194982771035352
  0
LINE
  8
0
  6
CONTINUOUS
 62
     7
 10
 5.6938839045990548
 20
 26.867112276719592
 11
 6.4259347121679511
 21
 27.599163084288488
  0
LINE
  8
0
  6
CONTINUOUS
 62
     7
 10
 2.598801856693278
 20
 23.998305863579457
 11
 5.3308526642621175
 21
 26.730356671148296
  0
LINE
  8
0
  6
CONTINUOUS
 62
     7
 10
 5.6110612740173949
 20
 27.010565280903545
 11
 6.3351987332337032
 21
 27.734702740119882
  0
LINE
  8
0
  6
CONTINUOUS
 62
     7
 10
 2.90790012204058
 20
 24.533679763692373
 11
 6.2259670502822857
 21
 27.851746691934135
  0
LINE
  8
0
  6
CONTINUOUS
 62
     7
 10
 3.216998387387882
 20
 25.069053663805288
 11
 6.0984588639348871
 21
 27.95051414035235
  0
LINE
  8
0
  6
CONTINUOUS
 62
     7
 10
 3.526096652735184
 20
 25.604427563918232
 11
 5.9514748135394129
 21
 28.029805724722518
  0
LINE
  8
0
  6
CONTINUOUS
 62
     7
 10
 3.835194918082486
 20
 26.139801464031148
 11
 5.7817382068302194
 21
 28.086344752778881
  0
LINE
  8
0
  6
CONTINUOUS
 62
     7
 10
 4.1442931834297596
 20
 26.675175364144035
 11
 5.5817962705927968
 21
 28.112678451307101
  0
LINE
  8
0
  6
CONTINUOUS
 62
     7
 10
 4.4533914487770616
 20
 27.210549264256951
 11
 5.3313596749866221
 21
 28.088517490466597
  0
LINE
  8
0
  6
CONTINUOUS
 62
     7
 10
-0.7821335762824972
 20
 11.792620674744295
 11
 0.2178664237175028
 21
 12.792620674744295
  0
LINE
  8
0
  6
CONTINUOUS
 62
     7
 10
 8.8411438667024171
 20
 21.41589811772921
 11
 9.5731946742713134
 21
 22.147948925298078
  0
LINE
  8
0
  6
CONTINUOUS
 62
     7
 10
-0.5558579415168552
 20
 11.792620674744295
 11
 0.4441420584831448
 21
 12.792620674744295
  0
LINE
  8
0
  6
CONTINUOUS
 62
     7
 10
 8.9239664972841055
 20
 21.272445113545256
 11
 9.6560173048529734
 21
 22.004495921114152
  0
LINE
  8
0
  6
CONTINUOUS
 62
     7
 10
-0.3295823067512416
 20
 11.792620674744295
 11
 0.6704176932487584
 21
 12.792620674744295
  0
LINE
  8
0
  6
CONTINUOUS
 62
     7
 10
 9.0067891278657655
 20
 21.128992109361302
 11
 9.7388399354346618
 21
 21.861042916930199
  0
LINE
  8
0
  6
CONTINUOUS
 62
     7
 10
-0.1033066719855995
 20
 11.792620674744295
 11
 0.8966933280144005
 21
 12.792620674744295
  0
LINE
  8
0
  6
CONTINUOUS
 62
     7
 10
 9.0896117584474538
 20
 20.985539105177349
 11
 9.8216625660163501
 21
 21.717589912746245
  0
LINE
  8
0
  6
CONTINUOUS
 62
     7
 10
 0.1229689627800141
 20
 11.792620674744295
 11
 1.1229689627800141
 21
 12.792620674744295
  0
LINE
  8
0
  6
CONTINUOUS
 62
     7
 10
 9.1724343890291422
 20
 20.842086100993424
 11
 9.9044851965979817
 21
 21.574136908562263
  0
LINE
  8
0
  6
CONTINUOUS
 62
     7
 10
 0.3492445975456278
 20
 11.792620674744295
 11
 1.3492445975456278
 21
 12.792620674744295
  0
LINE
  8
0
  6
CONTINUOUS
 62
     7
 10
 9.2552570196107737
 20
 20.698633096809413
 11
 9.9873078271796416
 21
 21.430683904378309
  0
LINE
  8
0
  6
CONTINUOUS
 62
     7
 10
 0.5755202323112698
 20
 11.792620674744295
 11
 1.5755202323112698
 21
 12.792620674744295
  0
LINE
  8
0
  6
CONTINUOUS
 62
     7
 10
 9.3380796501924337
 20
 20.555180092625459
 11
 10.07013045776133
 21
 21.287230900194356
  0
LINE
  8
0
  6
CONTINUOUS
 62
     7
 10
 0.8017958670768834
 20
 11.792620674744295
 11
 1.8017958670768834
 21
 12.792620674744295
  0
LINE
  8
0
  6
CONTINUOUS
 62
     7
 10
 9.4209022807741221
 20
 20.411727088441534
 11
 10.15295308834299
 21
 21.143777896010402
  0
LINE
  8
0
  6
CONTINUOUS
 62
     7
 10
 1.0280715018425255
 20
 11.792620674744295
 11
 2.0280715018425255
 21
 12.792620674744295
  0
LINE
  8
0
  6
CONTINUOUS
 62
     7
 10
 9.503724911355782
 20
 20.26827408425758
 11
 10.235775718924678
 21
 21.000324891826448
  0
LINE
  8
0
  6
CONTINUOUS
 62
     7
 10
 1.2543471366081391
 20
 11.792620674744295
 11
 2.2543471366081391
 21
 12.792620674744295
  0
LINE
  8
0
  6
CONTINUOUS
 62
     7
 10
 9.5865475419374704
 20
 20.124821080073627
 11
 10.31859834950631
 21
 20.856871887642466
  0
LINE
  8
0
  6
CONTINUOUS
 62
     7
 10
 1.4806227713737528
 20
 11.792620674744295
 11
 2.4806227713737528
 21
 12.792620674744295
  0
LINE
  8
0
  6
CONTINUOUS
 62
     7
 10
 9.6693701725191019
 20
 19.981368075889645
 11
 10.401420980087998
 21
 20.713418883458512
  0
LINE
  8
0
  6
CONTINUOUS
 62
     7
 10
 1.7068984061393948
 20
 11.792620674744295
 11
 2.7068984061393948
 21
 12.792620674744295
  0
LINE
  8
0
  6
CONTINUOUS
 62
     7
 10
 9.7521928031007903
 20
 19.837915071705691
 11
 10.484243610669658
 21
 20.569965879274559
  0
LINE
  8
0
  6
CONTINUOUS
 62
     7
 10
 1.9331740409050084
 20
 11.792620674744295
 11
 2.9331740409050084
 21
 12.792620674744295
  0
LINE
  8
0
  6
CONTINUOUS
 62
     7
 10
 9.8350154336824502
 20
 19.694462067521737
 11
 10.567066241251347
 21
 20.426512875090634
  0
LINE
  8
0
  6
CONTINUOUS
 62
     7
 10
 2.1594496756706505
 20
 11.792620674744295
 11
 3.1594496756706505
 21
 12.792620674744295
  0
LINE
  8
0
  6
CONTINUOUS
 62
     7
 10
 9.9178380642641386
 20
 19.551009063337784
 11
 10.649888871833006
 21
 20.28305987090668
  0
LINE
  8
0
  6
CONTINUOUS
 62
     7
 10
 2.3857253104362641
 20
 11.792620674744295
 11
 3.3857253104362641
 21
 12.792620674744295
  0
LINE
  8
0
  6
CONTINUOUS
 62
     7
 10
 10.000660694845799
 20
 19.40755605915383
 11
 10.732711502414638
 21
 20.139606866722669
  0
LINE
  8
0
  6
CONTINUOUS
 62
     7
 10
 2.6120009452018778
 20
 11.792620674744295
 11
 3.6120009452018778
 21
 12.792620674744295
  0
LINE
  8
0
  6
CONTINUOUS
 62
     7
 10
 10.083483325427487
 20
 19.264103054969905
 11
 10.815534132996326
 21
 19.996153862538744
  0
LINE
  8
0
  6
CONTINUOUS
 62
     7
 10
 2.8382765799675198
 20
 11.792620674744295
 11
 3.8382765799675198
 21
 12.792620674744295
  0
LINE
  8
0
  6
CONTINUOUS
 62
     7
 10
 10.166305956009118
 20
 19.120650050785894
 11
 10.898356763578015
 21
 19.85270085835479
  0
LINE
  8
0
  6
CONTINUOUS
 62
     7
 10
 3.0645522147331334
 20
 11.792620674744295
 11
 4.0645522147331334
 21
 12.792620674744295
  0
LINE
  8
0
  6
CONTINUOUS
 62
     7
 10
 10.249128586590807
 20
 18.97719704660194
 11
 10.981179394159675
 21
 19.709247854170837
  0
LINE
  8
0
  6
CONTINUOUS
 62
     7
 10
 3.2908278494987755
 20
 11.792620674744295
 11
 4.2908278494987755
 21
 12.792620674744295
  0
LINE
  8
0
  6
CONTINUOUS
 62
     7
 10
 10.331951217172467
 20
 18.833744042418015
 11
 11.064002024741363
 21
 19.565794849986883
  0
LINE
  8
0
  6
CONTINUOUS
 62
     7
 10
 3.5171034842643891
 20
 11.792620674744295
 11
 4.5171034842643891
 21
 12.792620674744295
  0
LINE
  8
0
  6
CONTINUOUS
 62
     7
 10
 10.414773847754155
 20
 18.690291038234061
 11
 11.146824655322995
 21
 19.422341845802901
  0
LINE
  8
0
  6
CONTINUOUS
 62
     7
 10
 3.7433791190300028
 20
 11.792620674744295
 11
 4.7433791190300028
 21
 12.792620674744295
  0
LINE
  8
0
  6
CONTINUOUS
 62
     7
 10
 10.497596478335815
 20
 18.546838034050108
 11
 11.229647285904655
 21
 19.278888841618947
  0
LINE
  8
0
  6
CONTINUOUS
 62
     7
 10
 3.9696547537956448
 20
 11.792620674744295
 11
 4.9696547537956448
 21
 12.792620674744295
  0
LINE
  8
0
  6
CONTINUOUS
 62
     7
 10
 10.580419108917447
 20
 18.403385029866126
 11
 11.312469916486343
 21
 19.135435837434994
  0
LINE
  8
0
  6
CONTINUOUS
 62
     7
 10
 4.1959303885612584
 20
 11.792620674744295
 11
 5.1959303885612584
 21
 12.792620674744295
  0
LINE
  8
0
  6
CONTINUOUS
 62
     7
 10
 10.663241739499135
 20
 18.259932025682172
 11
 11.395292547068031
 21
 18.99198283325104
  0
LINE
  8
0
  6
CONTINUOUS
 62
     7
 10
 4.4222060233269005
 20
 11.792620674744295
 11
 5.4222060233269005
 21
 12.792620674744295
  0
LINE
  8
0
  6
CONTINUOUS
 62
     7
 10
 10.746064370080823
 20
 18.116479021498218
 11
 11.478115177649691
 21
 18.848529829067115
  0
LINE
  8
0
  6
CONTINUOUS
 62
     7
 10
 4.6484816580925141
 20
 11.792620674744295
 11
 5.6484816580925141
 21
 12.792620674744295
  0
LINE
  8
0
  6
CONTINUOUS
 62
     7
 10
 10.828887000662483
 20
 17.973026017314265
 11
 11.560937808231323
 21
 18.705076824883104
  0
LINE
  8
0
  6
CONTINUOUS
 62
     7
 10
 4.8747572928581278
 20
 11.792620674744295
 11
 5.8747572928581278
 21
 12.792620674744295
  0
LINE
  8
0
  6
CONTINUOUS
 62
     7
 10
 10.911709631244172
 20
 17.829573013130311
 11
 11.643760438813011
 21
 18.56162382069915
  0
LINE
  8
0
  6
CONTINUOUS
 62
     7
 10
 5.1010329276237698
 20
 11.792620674744295
 11
 6.1010329276237698
 21
 12.792620674744295
  0
LINE
  8
0
  6
CONTINUOUS
 62
     7
 10
 10.994532261825803
 20
 17.686120008946329
 11
 11.726583069394671
 21
 18.418170816515225
  0
LINE
  8
0
  6
CONTINUOUS
 62
     7
 10
 5.3273085623893834
 20
 11.792620674744295
 11
 6.3273085623893834
 21
 12.792620674744295
  0
LINE
  8
0
  6
CONTINUOUS
 62
     7
 10
 11.077354892407463
 20
 17.542667004762375
 11
 11.809405699976359
 21
 18.274717812331271
  0
LINE
  8
0
  6
CONTINUOUS
 62
     7
 10
 5.5535841971550255
 20
 11.792620674744295
 11
 6.5535841971550255
 21
 12.792620674744295
  0
LINE
  8
0
  6
CONTINUOUS
 62
     7
 10
 11.160177522989152
 20
 17.399214000578421
 11
 11.892228330558048
 21
 18.131264808147318
  0
LINE
  8
0
  6
CONTINUOUS
 62
     7
 10
 5.7798598319206391
 20
 11.792620674744295
 11
 6.7798598319206391
 21
 12.792620674744295
  0
LINE
  8
0
  6
CONTINUOUS
 62
     7
 10
 11.24300015357084
 20
 17.255760996394496
 11
 11.975050961139679
 21
 17.987811803963336
  0
LINE
  8
0
  6
CONTINUOUS
 62
     7
 10
 6.0061354666862528
 20
 11.792620674744295
 11
 7.0061354666862528
 21
 12.792620674744295
  0
LINE
  8
0
  6
CONTINUOUS
 62
     7
 10
 11.3258227841525
 20
 17.112307992210543
 11
 12.057873591721339
 21
 17.844358799779382
  0
LINE
  8
0
  6
CONTINUOUS
 62
     7
 10
 6.2324111014518948
 20
 11.792620674744295
 11
 7.2324111014518948
 21
 12.792620674744295
  0
LINE
  8
0
  6
CONTINUOUS
 62
     7
 10
 11.408645414734131
 20
 16.968854988026532
 11
 12.140696222303028
 21
 17.700905795595428
  0
LINE
  8
0
  6
CONTINUOUS
 62
     7
 10
 6.4586867362175084
 20
 11.792620674744295
 11
 7.4586867362175084
 21
 12.792620674744295
  0
LINE
  8
0
  6
CONTINUOUS
 62
     7
 10
 11.49146804531582
 20
 16.825401983842607
 11
 12.223518852884688
 21
 17.557452791411475
  0
LINE
  8
0
  6
CONTINUOUS
 62
     7
 10
 6.6849623709831505
 20
 11.792620674744295
 11
 7.6849623709831505
 21
 12.792620674744295
  0
LINE
  8
0
  6
CONTINUOUS
 62
     7
 10
 11.57429067589748
 20
 16.681948979658653
 11
 12.306341483466319
 21
 17.413999787227493
  0
LINE
  8
0
  6
CONTINUOUS
 62
     7
 10
 6.9112380057487641
 20
 11.792620674744295
 11
 7.9112380057487641
 21
 12.792620674744295
  0
LINE
  8
0
  6
CONTINUOUS
 62
     7
 10
 11.657113306479168
 20
 16.538495975474699
 11
 12.389164114048008
 21
 17.270546783043539
  0
LINE
  8
0
  6
CONTINUOUS
 62
     7
 10
 7.1375136405143778
 20
 11.792620674744295
 11
 8.1375136405143778
 21
 12.792620674744295
  0
LINE
  8
0
  6
CONTINUOUS
 62
     7
 10
 11.739935937060856
 20
 16.395042971290746
 11
 12.471986744629696
 21
 17.127093778859585
  0
LINE
  8
0
  6
CONTINUOUS
 62
     7
 10
 7.3637892752800198
 20
 11.792620674744295
 11
 8.3637892752800198
 21
 12.792620674744295
  0
LINE
  8
0
  6
CONTINUOUS
 62
     7
 10
 11.822758567642516
 20
 16.251589967106792
 11
 12.554809375211356
 21
 16.983640774675631
  0
LINE
  8
0
  6
CONTINUOUS
 62
     7
 10
 7.5900649100456334
 20
 11.792620674744295
 11
 8.5900649100456334
 21
 12.792620674744295
  0
LINE
  8
0
  6
CONTINUOUS
 62
     7
 10
 11.905581198224148
 20
 16.10813696292281
 11
 12.637632005793044
 21
 16.840187770491706
  0
LINE
  8
0
  6
CONTINUOUS
 62
     7
 10
 7.8163405448112755
 20
 11.792620674744295
 11
 8.8163405448112755
 21
 12.792620674744295
  0
LINE
  8
0
  6
CONTINUOUS
 62
     7
 10
 11.988403828805836
 20
 15.964683958738856
 11
 12.720454636374676
 21
 16.696734766307696
  0
LINE
  8
0
  6
CONTINUOUS
 62
     7
 10
 8.0426161795768891
 20
 11.792620674744295
 11
 9.0426161795768891
 21
 12.792620674744295
  0
LINE
  8
0
  6
CONTINUOUS
 62
     7
 10
 12.071226459387496
 20
 15.821230954554903
 11
 12.803277266956336
 21
 16.553281762123742
  0
LINE
  8
0
  6
CONTINUOUS
 62
     7
 10
 8.2688918143425028
 20
 11.792620674744295
 11
 9.2688918143425028
 21
 12.792620674744295
  0
LINE
  8
0
  6
CONTINUOUS
 62
     7
 10
 12.154049089969185
 20
 15.677777950370977
 11
 12.886099897538024
 21
 16.409828757939817
  0
LINE
  8
0
  6
CONTINUOUS
 62
     7
 10
 8.4951674491081448
 20
 11.792620674744295
 11
 9.4951674491081448
 21
 12.792620674744295
  0
LINE
  8
0
  6
CONTINUOUS
 62
     7
 10
 12.236871720550873
 20
 15.534324946187024
 11
 12.968922528119712
 21
 16.266375753755863
  0
LINE
  8
0
  6
CONTINUOUS
 62
     7
 10
 8.7214430838737584
 20
 11.792620674744295
 11
 9.7214430838737584
 21
 12.792620674744295
  0
LINE
  8
0
  6
CONTINUOUS
 62
     7
 10
 12.319694351132505
 20
 15.390871942003013
 11
 13.051745158701372
 21
 16.122922749571909
  0
LINE
  8
0
  6
CONTINUOUS
 62
     7
 10
 8.9477187186394005
 20
 11.792620674744295
 11
 9.9477187186394005
 21
 12.792620674744295
  0
LINE
  8
0
  6
CONTINUOUS
 62
     7
 10
 12.402516981714165
 20
 15.247418937819088
 11
 13.134567789283004
 21
 15.979469745387927
  0
LINE
  8
0
  6
CONTINUOUS
 62
     7
 10
 9.1739943534050141
 20
 11.792620674744295
 11
 10.173994353405014
 21
 12.792620674744295
  0
LINE
  8
0
  6
CONTINUOUS
 62
     7
 10
 12.485339612295853
 20
 15.103965933635134
 11
 13.217390419864692
 21
 15.836016741203974
  0
LINE
  8
0
  6
CONTINUOUS
 62
     7
 10
 9.4002699881706278
 20
 11.792620674744295
 11
 10.400269988170628
 21
 12.792620674744295
  0
LINE
  8
0
  6
CONTINUOUS
 62
     7
 10
 12.568162242877513
 20
 14.96051292945118
 11
 13.300213050446352
 21
 15.69256373702002
  0
LINE
  8
0
  6
CONTINUOUS
 62
     7
 10
 9.6265456229362698
 20
 11.792620674744295
 11
 10.62654562293627
 21
 12.792620674744295
  0
LINE
  8
0
  6
CONTINUOUS
 62
     7
 10
 12.650984873459201
 20
 14.817059925267227
 11
 13.383035681028041
 21
 15.549110732836066
  0
LINE
  8
0
  6
CONTINUOUS
 62
     7
 10
 9.8528212577018834
 20
 11.792620674744295
 11
 10.852821257701883
 21
 12.792620674744295
  0
LINE
  8
0
  6
CONTINUOUS
 62
     7
 10
 12.733807504040833
 20
 14.673606921083245
 11
 13.465858311609729
 21
 15.405657728652113
  0
LINE
  8
0
  6
CONTINUOUS
 62
     7
 10
 10.079096892467525
 20
 11.792620674744295
 11
 11.079096892467525
 21
 12.792620674744295
  0
LINE
  8
0
  6
CONTINUOUS
 62
     7
 10
 12.816630134622521
 20
 14.530153916899291
 11
 13.548680942191361
 21
 15.26220472446813
  0
LINE
  8
0
  6
CONTINUOUS
 62
     7
 10
 10.305372527233139
 20
 11.792620674744295
 11
 11.305372527233139
 21
 12.792620674744295
  0
LINE
  8
0
  6
CONTINUOUS
 62
     7
 10
 12.899452765204181
 20
 14.386700912715337
 11
 13.63150357277302
 21
 15.118751720284177
  0
LINE
  8
0
  6
CONTINUOUS
 62
     7
 10
 10.531648161998753
 20
 11.792620674744295
 11
 11.531648161998753
 21
 12.792620674744295
  0
LINE
  8
0
  6
CONTINUOUS
 62
     7
 10
 12.982275395785869
 20
 14.243247908531384
 11
 13.714326203354709
 21
 14.975298716100223
  0
LINE
  8
0
  6
CONTINUOUS
 62
     7
 10
 10.757923796764395
 20
 11.792620674744295
 11
 11.757923796764395
 21
 12.792620674744295
  0
LINE
  8
0
  6
CONTINUOUS
 62
     7
 10
 13.065098026367529
 20
 14.099794904347458
 11
 13.797148833936369
 21
 14.831845711916298
  0
LINE
  8
0
  6
CONTINUOUS
 62
     7
 10
 10.984199431530008
 20
 11.792620674744295
 11
 11.984199431530008
 21
 12.792620674744295
  0
LINE
  8
0
  6
CONTINUOUS
 62
     7
 10
 13.147920656949161
 20
 13.956341900163448
 11
 13.879971464518057
 21
 14.688392707732344
  0
LINE
  8
0
  6
CONTINUOUS
 62
     7
 10
 11.21047506629565
 20
 11.792620674744295
 11
 12.21047506629565
 21
 12.792620674744295
  0
LINE
  8
0
  6
CONTINUOUS
 62
     7
 10
 13.230743287530849
 20
 13.812888895979494
 11
 13.962794095099689
 21
 14.544939703548334
  0
LINE
  8
0
  6
CONTINUOUS
 62
     7
 10
 11.436750701061264
 20
 11.792620674744295
 11
 12.436750701061264
 21
 12.792620674744295
  0
LINE
  8
0
  6
CONTINUOUS
 62
     7
 10
 13.313565918112538
 20
 13.669435891795569
 11
 14.045616725681377
 21
 14.401486699364408
  0
LINE
  8
0
  6
CONTINUOUS
 62
     7
 10
 11.663026335826878
 20
 11.792620674744295
 11
 12.663026335826878
 21
 12.792620674744295
  0
LINE
  8
0
  6
CONTINUOUS
 62
     7
 10
 13.396388548694198
 20
 13.525982887611615
 11
 14.128439356263037
 21
 14.258033695180455
  0
LINE
  8
0
  6
CONTINUOUS
 62
     7
 10
 11.88930197059252
 20
 11.792620674744295
 11
 12.88930197059252
 21
 12.792620674744295
  0
LINE
  8
0
  6
CONTINUOUS
 62
     7
 10
 13.479211179275886
 20
 13.382529883427662
 11
 14.211261986844725
 21
 14.114580690996501
  0
LINE
  8
0
  6
CONTINUOUS
 62
     7
 10
 12.115577605358133
 20
 11.792620674744295
 11
 13.115577605358133
 21
 12.792620674744295
  0
LINE
  8
0
  6
CONTINUOUS
 62
     7
 10
 13.562033809857546
 20
 13.239076879243708
 11
 14.294084617426385
 21
 13.971127686812547
  0
LINE
  8
0
  6
CONTINUOUS
 62
     7
 10
 12.341853240123775
 20
 11.792620674744295
 11
 13.341853240123775
 21
 12.792620674744295
  0
LINE
  8
0
  6
CONTINUOUS
 62
     7
 10
 13.644856440439177
 20
 13.095623875059726
 11
 14.376907248008017
 21
 13.827674682628565
  0
LINE
  8
0
  6
CONTINUOUS
 62
     7
 10
 12.568128874889389
 20
 11.792620674744295
 11
 13.568128874889389
 21
 12.792620674744295
  0
LINE
  8
0
  6
CONTINUOUS
 62
     7
 10
 13.727679071020866
 20
 12.952170870875772
 11
 14.459729878589705
 21
 13.684221678444612
  0
LINE
  8
0
  6
CONTINUOUS
 62
     7
 10
 12.794404509655003
 20
 11.792620674744295
 11
 13.794404509655003
 21
 12.792620674744295
  0
LINE
  8
0
  6
CONTINUOUS
 62
     7
 10
 13.810501701602554
 20
 12.808717866691818
 11
 14.542552509171394
 21
 13.540768674260658
  0
LINE
  8
0
  6
CONTINUOUS
 62
     7
 10
 13.020680144420645
 20
 11.792620674744295
 11
 14.625375139753054
 21
 13.397315670076704
  0
LINE
  8
0
  6
CONTINUOUS
 62
     7
 10
 13.246955779186258
 20
 11.792620674744295
 11
 14.707454456054954
 21
 13.253119351613048
  0
LINE
  8
0
  6
CONTINUOUS
 62
     7
 10
 13.4732314139519
 20
 11.792620674744295
 11
 14.773613275085403
 21
 13.093002535877826
  0
LINE
  8
0
  6
CONTINUOUS
 62
     7
 10
 13.699507048717514
 20
 11.792620674744295
 11
 14.813299024129741
 21
 12.906412650156579
  0
LINE
  8
0
  6
CONTINUOUS
 62
     7
 10
 13.932109089684523
 20
 11.79894708094572
 11
 14.813467230488207
 21
 12.680305221749403
  0
LINE
  8
0
  6
CONTINUOUS
 62
     7
 10
 14.248715327853169
 20
 11.88927768434878
 11
 14.723136627085175
 21
 12.363698983580729
  0
LINE
  8
0
  6
CONTINUOUS
 62
     3
 10
 4.3449271244334042
 20
 18.788336366504449
 11
 6.9909902306874514
 21
 20.115900569444147
  0
LINE
  8
0
  6
CONTINUOUS
 62
     7
 10
 5.5994179286864707
 20
 18.270451778495964
 11
 6.7998843406044998
 21
 19.470918190413993
  0
LINE
  8
0
  6
CONTINUOUS
 62
     7
 10
 5.642439796310633
 20
 18.494494153932646
 11
 6.8761035017886272
 21
 19.728157859410668
  0
LINE
  8
0
  6
CONTINUOUS
 62
     7
 10
 5.5190602287564374
 20
 18.552135094190913
 11
 6.9523226629728683
 21
 19.9853975284074
  0
LINE
  8
0
  6
CONTINUOUS
 62
     7
 10
 5.1311214520710777
 20
 18.345216825318101
 11
 6.812006972679761
 21
 20.026102345926727
  0
LINE
  8
0
  6
CONTINUOUS
 62
     7
 10
 4.743182675385718
 20
 18.13829855644526
 11
 6.4487213559878782
 21
 19.843837237047421
  0
LINE
  8
0
  6
CONTINUOUS
 62
     7
 10
 4.3552438987004152
 20
 17.931380287572392
 11
 6.0854357392960807
 21
 19.661572128168086
  0
LINE
  8
0
  6
CONTINUOUS
 62
     7
 10
 5.5563960610622232
 20
 18.046409403059226
 11
 6.7236651794202587
 21
 19.213678521417261
  0
LINE
  8
0
  6
CONTINUOUS
 62
     7
 10
 5.5133741934379756
 20
 17.822367027622544
 11
 6.6474460182360176
 21
 18.956438852420529
  0
LINE
  8
0
  6
CONTINUOUS
 62
     7
 10
 5.4703523258138134
 20
 17.598324652185806
 11
 6.5712268570517764
 21
 18.699199183423797
  0
LINE
  8
0
  6
CONTINUOUS
 62
     7
 10
 5.4273304581895658
 20
 17.374282276749096
 11
 6.4950076958675922
 21
 18.441959514427094
  0
LINE
  8
0
  6
CONTINUOUS
 62
     7
 10
 5.3843085905653183
 20
 17.150239901312357
 11
 6.4187885346833511
 21
 18.18471984543039
  0
LINE
  8
0
  6
CONTINUOUS
 62
     7
 10
 5.341286722941156
 20
 16.926197525875676
 11
 6.3425693734991384
 21
 17.927480176433686
  0
LINE
  8
0
  6
CONTINUOUS
 62
     7
 10
 5.2982648553169085
 20
 16.702155150438937
 11
 6.2663502123149257
 21
 17.670240507436954
  0
LINE
  8
0
  6
CONTINUOUS
 62
     7
 10
 5.255242987692661
 20
 16.478112775002227
 11
 6.190131051130713
 21
 17.413000838440222
  0
LINE
  8
0
  6
CONTINUOUS
 62
     7
 10
 5.2122211200685271
 20
 16.254070399565489
 11
 6.1139118899464719
 21
 17.15576116944349
  0
LINE
  8
0
  6
CONTINUOUS
 62
     7
 10
 5.1691992524442796
 20
 16.03002802412875
 11
 6.0376927287622308
 21
 16.898521500446815
  0
LINE
  8
0
  6
CONTINUOUS
 62
     7
 10
 4.3587640950749957
 20
 15.400613374572014
 11
 4.4046145152556093
 21
 15.446463794752628
  0
LINE
  8
0
  6
CONTINUOUS
 62
     7
 10
 4.4144627128635179
 20
 15.275291484548017
 11
 4.5102098114795623
 21
 15.371038583164061
  0
LINE
  8
0
  6
CONTINUOUS
 62
     7
 10
 4.4701613306519832
 20
 15.149969594523963
 11
 4.6158051077035154
 21
 15.295613371575524
  0
LINE
  8
0
  6
CONTINUOUS
 62
     7
 10
 5.1261773848200605
 20
 15.805985648692069
 11
 5.961473567578075
 21
 16.641281831450083
  0
LINE
  8
0
  6
CONTINUOUS
 62
     7
 10
 5.0831555171958698
 20
 15.581943273255387
 11
 5.8852544063938623
 21
 16.384042162453351
  0
LINE
  8
0
  6
CONTINUOUS
 62
     7
 10
 5.0401336495716222
 20
 15.357900897818649
 11
 5.8090352452096496
 21
 16.126802493456676
  0
LINE
  8
0
  6
CONTINUOUS
 62
     7
 10
 4.9971117819474031
 20
 15.13385852238191
 11
 5.732816084025437
 21
 15.869562824459916
  0
LINE
  8
0
  6
CONTINUOUS
 62
     3
 10
 5.6726046405315955
 20
 23.338868111089379
 11
 6.2745055956404414
 21
 23.311218310392047
  0
LINE
  8
0
  6
CONTINUOUS
 62
     7
 10
 4.3764038760572177
 20
 21.753970928991759
 11
 5.9486215429042133
 21
 23.326188595838698
  0
LINE
  8
0
  6
CONTINUOUS
 62
     7
 10
 4.4614763766264147
 20
 22.020063937373475
 11
 5.7755514360990432
 21
 23.334138996846075
  0
LINE
  8
0
  6
CONTINUOUS
 62
     3
 10
 5.0975886405315336
 20
 24.009720111089432
 11
 5.6726046405315955
 21
 23.338868111089379
  0
LINE
  8
0
  6
CONTINUOUS
 62
     7
 10
 4.8868388794726272
 20
 23.350528979282142
 11
 5.3045615808769853
 21
 23.768251680686443
  0
LINE
  8
0
  6
CONTINUOUS
 62
     7
 10
 4.9719113800418526
 20
 23.616621987663859
 11
 5.2210136541942447
 21
 23.865724261816307
  0
LINE
  8
0
  6
CONTINUOUS
 62
     7
 10
 5.0569838806110781
 20
 23.882714996045632
 11
 5.1374657275115894
 21
 23.963196842946086
  0
LINE
  8
0
  6
CONTINUOUS
 62
     7
 10
 4.546548877195697
 20
 22.286156945755192
 11
 5.6387532876077202
 21
 23.378361356167215
  0
LINE
  8
0
  6
CONTINUOUS
 62
     7
 10
 4.6316213777649224
 20
 22.552249954136936
 11
 5.5552053609250081
 21
 23.475833937297022
  0
LINE
  8
0
  6
CONTINUOUS
 62
     7
 10
 4.7166938783341479
 20
 22.818342962518681
 11
 5.4716574342423243
 21
 23.573306518426858
  0
LINE
  8
0
  6
CONTINUOUS
 62
     7
 10
 4.8017663789034302
 20
 23.084435970900426
 11
 5.3881095075596406
 21
 23.670779099556665
  0
LINE
  8
0
  6
CONTINUOUS
 62
     3
 10
 4.3449271244334042
 20
 18.788336366504449
 11
 6.2745055956404414
 21
 23.311218310392047
  0
LINE
  8
0
  6
CONTINUOUS
 62
     7
 10
 4.2913313754879923
 20
 21.487877920610043
 11
 6.1216916497092981
 21
 23.318238194831348
  0
LINE
  8
0
  6
CONTINUOUS
 62
     7
 10
 4.2062588749187668
 20
 21.221784912228326
 11
 6.2587413948442858
 21
 23.274267432153845
  0
LINE
  8
0
  6
CONTINUOUS
 62
     7
 10
 4.1211863743495698
 20
 20.955691903846581
 11
 6.1240509205509497
 21
 22.958556450047961
  0
LINE
  8
0
  6
CONTINUOUS
 62
     7
 10
 4.0361138737803159
 20
 20.689598895464837
 11
 5.9893604462575851
 21
 22.642845467942106
  0
LINE
  8
0
  6
CONTINUOUS
 62
     3
 10
 4.3075822306874088
 20
 15.51577256944422
 11
 4.9784342306874052
 21
 15.036592569444206
  0
LINE
  8
0
  6
CONTINUOUS
 62
     3
 10
 4.9784342306874052
 20
 15.036592569444206
 11
 5.6688501691005726
 21
 18.632029853398603
  0
LINE
  8
0
  6
CONTINUOUS
 62
     3
 10
 6.4159742306875032
 20
 15.515772569444106
 11
 5.4576142306874189
 21
 14.940756569444158
  0
LINE
  8
0
  6
CONTINUOUS
 62
     3
 10
 5.4576142306874189
 20
 14.940756569444158
 11
 6.9909902306874514
 21
 20.115900569444147
  0
LINE
  8
0
  6
CONTINUOUS
 62
     7
 10
 4.5258599484403632
 20
 15.024647704499937
 11
 4.7214004039274968
 21
 15.220188159987014
  0
LINE
  8
0
  6
CONTINUOUS
 62
     7
 10
 4.5815585662288569
 20
 14.899325814475883
 11
 4.8269957001514499
 21
 15.144762948398419
  0
LINE
  8
0
  6
CONTINUOUS
 62
     7
 10
 4.6372571840173507
 20
 14.774003924451858
 11
 4.9325909963754313
 21
 15.06933773680991
  0
LINE
  8
0
  6
CONTINUOUS
 62
     7
 10
 4.6929558018057591
 20
 14.648682034427804
 11
 5.6565969228411959
 21
 15.61232315546324
  0
LINE
  8
0
  6
CONTINUOUS
 62
     7
 10
 4.7486544195942528
 20
 14.523360144403807
 11
 5.5803777616570116
 21
 15.355083486466508
  0
LINE
  8
0
  6
CONTINUOUS
 62
     7
 10
 4.8043530373827465
 20
 14.398038254379752
 11
 5.5041586004727705
 21
 15.097843817469776
  0
LINE
  8
0
  6
CONTINUOUS
 62
     7
 10
 4.860051655171155
 20
 14.272716364355727
 11
 5.6338083046180074
 21
 15.046473013802466
  0
LINE
  8
0
  6
CONTINUOUS
 62
     7
 10
 4.9157502729596487
 20
 14.147394474331673
 11
 6.0863595741490641
 21
 15.318003775521088
  0
LINE
  8
0
  6
CONTINUOUS
 62
     7
 10
 4.9714488907480856
 20
 14.022072584307647
 11
 6.2438629724977019
 21
 15.294486666057235
  0
LINE
  8
0
  6
CONTINUOUS
 62
     3
 10
 5.074270230687425
 20
 13.790724569444148
 11
 6.4159742306875032
 21
 15.515772569444106
  0
LINE
  8
0
  6
CONTINUOUS
 62
     3
 10
 5.074270230687425
 20
 13.790724569444148
 11
 4.3075822306874088
 21
 15.51577256944422
  0
LINE
  8
0
  6
CONTINUOUS
 62
     7
 10
 5.0271475085365509
 20
 13.896750694283593
 11
 5.6102911951535859
 21
 14.479894380900628
  0
LINE
  8
0
  6
CONTINUOUS
 62
     7
 10
 3.9673051220150839
 20
 17.72446201869958
 11
 5.7221501226042548
 21
 19.479307019288779
  0
LINE
  8
0
  6
CONTINUOUS
 62
     7
 10
 3.579366345329781
 20
 17.517543749826768
 11
 5.3588645059124005
 21
 19.297041910409472
  0
LINE
  8
0
  6
CONTINUOUS
 62
     7
 10
 3.6958238715033858
 20
 19.625226861937886
 11
 5.4505985490841553
 21
 21.380001539518684
  0
LINE
  8
0
  6
CONTINUOUS
 62
     7
 10
 3.780896372072668
 20
 19.891319870319659
 11
 5.5852890233775483
 21
 21.695712521624568
  0
LINE
  8
0
  6
CONTINUOUS
 62
     7
 10
 3.5256788703649065
 20
 19.093040845174453
 11
 5.1812176004974546
 21
 20.748579575306945
  0
LINE
  8
0
  6
CONTINUOUS
 62
     7
 10
 3.6107513709341603
 20
 19.35913385355617
 11
 5.3159080747908192
 21
 21.064290557412829
  0
LINE
  8
0
  6
CONTINUOUS
 62
     7
 10
 3.3555338692264556
 20
 18.560854828410992
 11
 4.9118366519107255
 21
 20.117157611095262
  0
LINE
  8
0
  6
CONTINUOUS
 62
     7
 10
 3.4406063697957379
 20
 18.826947836792737
 11
 5.0465271262040616
 21
 20.432868593201118
  0
LINE
  8
0
  6
CONTINUOUS
 62
     7
 10
 3.1914275686444213
 20
 17.310625480953927
 11
 4.995578889220603
 21
 19.114776801530137
  0
LINE
  8
0
  6
CONTINUOUS
 62
     3
 10
 2.90738712443342
 20
 17.159124366504425
 11
 5.6688501691005726
 21
 18.632029853398603
  0
LINE
  8
0
  6
CONTINUOUS
 62
     7
 10
 2.9301713663803
 20
 17.230389786502354
 11
 4.6322932725288339
 21
 18.932511692650831
  0
LINE
  8
0
  6
CONTINUOUS
 62
     7
 10
 3.0152438669495254
 20
 17.49648279488407
 11
 4.3730747547373241
 21
 18.85431368267184
  0
LINE
  8
0
  6
CONTINUOUS
 62
     7
 10
 3.1003163675188077
 20
 17.762575803265786
 11
 4.5077652290306887
 21
 19.170024664777724
  0
LINE
  8
0
  6
CONTINUOUS
 62
     7
 10
 3.9510413732111189
 20
 20.423505887083092
 11
 5.854669971964249
 21
 22.327134485836279
  0
LINE
  8
0
  6
CONTINUOUS
 62
     7
 10
 3.8659688726418366
 20
 20.157412878701376
 11
 5.719979497670856
 21
 22.011423503730395
  0
LINE
  8
0
  6
CONTINUOUS
 62
     7
 10
 3.1853888680880047
 20
 18.028668811647503
 11
 4.6424557033240248
 21
 19.485735646883551
  0
LINE
  8
0
  6
CONTINUOUS
 62
     7
 10
 3.2704613686572586
 20
 18.294761820029276
 11
 4.7771461776173894
 21
 19.801446628989378
  0
LINE
  8
0
  6
CONTINUOUS
 62
     3
 10
 2.90738712443342
 20
 17.159124366504425
 11
 5.0975886405315336
 21
 24.009720111089432
  0
ENDBLK
  8
0
  0
BLOCK
  8
0
  2
CADWIN-G1
 70
    0
 10
0.0
 20
0.0
  0
LINE
  8
0
  6
CONTINUOUS
 62
     3
 10
-4.4236468951523396
 20
 32.192315439330613
 11
 1.7773149991710309
 21
 32.192315439330613
  0
ARC
  8
0
  6
CONTINUOUS
 62
     3
 10
-4.4236468951523396
 20
 32.567315439330613
 40
 0.375
 50
 150.00000255872399
 51
-90.000001535234532
  0
ARC
  8
0
  6
CONTINUOUS
 62
     3
 10
 1.7773149991710309
 20
 32.567315439330613
 40
 0.375
 50
-90.000001535234816
 51
 30.000000511744783
  0
LINE
  8
0
  6
CONTINUOUS
 62
     3
 10
-4.7484064215714827
 20
 32.754815439330613
 11
-1.6479254744098117
 21
 38.125005967713903
  0
LINE
  8
0
  6
CONTINUOUS
 62
     3
 10
-0.9984064215714827
 20
 38.125005967713903
 11
 2.102074525590174
 21
 32.754815439330613
  0
ARC
  8
0
  6
CONTINUOUS
 62
     3
 10
-1.3231659479906686
 20
 37.937505967713903
 40
 0.375
 50
 30.000000511744883
 51
 150.00000255872422
  0
LINE
  8
0
  6
CONTINUOUS
 62
     3
 10
-1.3231659479906686
 20
 37.937505967713903
 11
-4.4236468951523396
 21
 32.567315439330613
  0
LINE
  8
0
  6
CONTINUOUS
 62
     3
 10
-4.4236468951523396
 20
 32.567315439330613
 11
 1.7773149991710309
 21
 32.567315439330613
  0
LINE
  8
0
  6
CONTINUOUS
 62
     3
 10
-1.3231659479906686
 20
 37.937505967713903
 11
 1.7773149991710309
 21
 32.567315439330613
  0
LINE
  8
0
  6
CONTINUOUS
 62
     7
 10
-3.7832617373620057
 20
 32.192315439330613
 11
-3.4082617373620057
 21
 32.567315439330613
  0
LINE
  8
0
  6
CONTINUOUS
 62
     7
 10
-0.120737819673673
 20
 35.854839357018946
 11
 0.1537812331646418
 21
 36.129358409857261
  0
LINE
  8
0
  6
CONTINUOUS
 62
     7
 10
-3.8681151003991179
 20
 32.192315439330613
 11
-3.4931151003991179
 21
 32.567315439330613
  0
LINE
  8
0
  6
CONTINUOUS
 62
     7
 10
-0.1517963061417991
 20
 35.908634233587932
 11
 0.1227227466965299
 21
 36.183153286426247
  0
LINE
  8
0
  6
CONTINUOUS
 62
     7
 10
-3.9529684634362301
 20
 32.192315439330613
 11
-3.5779684634362301
 21
 32.567315439330613
  0
LINE
  8
0
  6
CONTINUOUS
 62
     7
 10
-0.1828547926099251
 20
 35.962429110156918
 11
 0.0916642602284039
 21
 36.236948162995233
  0
LINE
  8
0
  6
CONTINUOUS
 62
     7
 10
-4.0378218264733281
 20
 32.192315439330613
 11
-3.6628218264733281
 21
 32.567315439330613
  0
LINE
  8
0
  6
CONTINUOUS
 62
     7
 10
-0.2139132790780511
 20
 36.016223986725876
 11
 0.0606057737602779
 21
 36.290743039564219
  0
LINE
  8
0
  6
CONTINUOUS
 62
     7
 10
-4.1226751895104403
 20
 32.192315439330613
 11
-3.7476751895104403
 21
 32.567315439330613
  0
LINE
  8
0
  6
CONTINUOUS
 62
     7
 10
-0.2449717655461772
 20
 36.070018863294862
 11
 0.0295472872921518
 21
 36.344537916133206
  0
LINE
  8
0
  6
CONTINUOUS
 62
     7
 10
-4.2075285525475525
 20
 32.192315439330613
 11
-3.8325285525475525
 21
 32.567315439330613
  0
LINE
  8
0
  6
CONTINUOUS
 62
     7
 10
-0.276030252014289
 20
 36.123813739863877
 11
-0.0015111991759742
 21
 36.398332792702163
  0
LINE
  8
0
  6
CONTINUOUS
 62
     7
 10
-4.2923819155846648
 20
 32.192315439330613
 11
-3.9173819155846648
 21
 32.567315439330613
  0
LINE
  8
0
  6
CONTINUOUS
 62
     7
 10
-0.3070887384824292
 20
 36.177608616432835
 11
-0.032569685644086
 21
 36.452127669271178
  0
LINE
  8
0
  6
CONTINUOUS
 62
     7
 10
-4.377235278621777
 20
 32.192315439330613
 11
-4.002235278621777
 21
 32.567315439330613
  0
LINE
  8
0
  6
CONTINUOUS
 62
     7
 10
-0.3381472249505553
 20
 36.231403493001821
 11
-0.0636281721122263
 21
 36.505922545840164
  0
LINE
  8
0
  6
CONTINUOUS
 62
     7
 10
-4.4602939250145486
 20
 32.194110155974968
 11
-4.087088641658875
 21
 32.567315439330613
  0
LINE
  8
0
  6
CONTINUOUS
 62
     7
 10
-0.3692057114186813
 20
 36.285198369570807
 11
-0.0946866585803523
 21
 36.559717422409122
  0
LINE
  8
0
  6
CONTINUOUS
 62
     7
 10
-4.5311906137162854
 20
 32.208066830310329
 11
-4.1719420046959872
 21
 32.567315439330613
  0
LINE
  8
0
  6
CONTINUOUS
 62
     7
 10
-0.4002641978868073
 20
 36.338993246139793
 11
-0.1257451450484783
 21
 36.613512298978108
  0
LINE
  8
0
  6
CONTINUOUS
 62
     7
 10
-4.5919208684361141
 20
 32.232189938627599
 11
-4.2567953677330994
 21
 32.567315439330613
  0
LINE
  8
0
  6
CONTINUOUS
 62
     7
 10
-0.4313226843549334
 20
 36.392788122708751
 11
-0.1568036315166044
 21
 36.667307175547094
  0
LINE
  8
0
  6
CONTINUOUS
 62
     7
 10
-4.6446243302956081
 20
 32.264339839805203
 11
-4.3416487307702116
 21
 32.567315439330613
  0
LINE
  8
0
  6
CONTINUOUS
 62
     7
 10
-0.4623811708230452
 20
 36.446582999277766
 11
-0.1878621179847162
 21
 36.72110205211608
  0
LINE
  8
0
  6
CONTINUOUS
 62
     7
 10
-4.6902359241764149
 20
 32.303581608961522
 11
-4.4197466212567722
 21
 32.574070911881151
  0
LINE
  8
0
  6
CONTINUOUS
 62
     7
 10
-0.4934396572911854
 20
 36.500377875846752
 11
-0.2189206044528422
 21
 36.774896928685067
  0
LINE
  8
0
  6
CONTINUOUS
 62
     7
 10
-4.7290148892410517
 20
 32.349656006934012
 11
-4.3038347717515482
 21
 32.774836124423487
  0
LINE
  8
0
  6
CONTINUOUS
 62
     7
 10
-0.5244981437593115
 20
 36.55417275241571
 11
-0.2499790909209825
 21
 36.828691805254053
  0
LINE
  8
0
  6
CONTINUOUS
 62
     7
 10
-4.760663197553777
 20
 32.402861061658385
 11
-4.1879229222463099
 21
 32.975601336965823
  0
LINE
  8
0
  6
CONTINUOUS
 62
     7
 10
-0.5555566302274375
 20
 36.607967628984696
 11
-0.2810375773891085
 21
 36.882486681823039
  0
LINE
  8
0
  6
CONTINUOUS
 62
     7
 10
-4.7841884212248491
 20
 32.464189201024411
 11
-4.0720110727410717
 21
 33.17636654950816
  0
LINE
  8
0
  6
CONTINUOUS
 62
     7
 10
-0.5866151166955635
 20
 36.661762505553682
 11
-0.3120960638572345
 21
 36.936281558392025
  0
LINE
  8
0
  6
CONTINUOUS
 62
     7
 10
-4.7973290809170894
 20
 32.535901904369283
 11
-3.9560992232358334
 21
 33.377131762050524
  0
LINE
  8
0
  6
CONTINUOUS
 62
     7
 10
-0.6176736031636754
 20
 36.715557382122668
 11
-0.3431545503253464
 21
 36.990076434961011
  0
LINE
  8
0
  6
CONTINUOUS
 62
     7
 10
-4.7943838179873755
 20
 32.623700530336109
 11
-3.8401873737305952
 21
 33.577896974592861
  0
LINE
  8
0
  6
CONTINUOUS
 62
     7
 10
-0.6487320896318014
 20
 36.769352258691654
 11
-0.3742130367934724
 21
 37.043871311529998
  0
LINE
  8
0
  6
CONTINUOUS
 62
     7
 10
-4.7487926282785455
 20
 32.754145083082065
 11
-3.7242755242253569
 21
 33.778662187135225
  0
LINE
  8
0
  6
CONTINUOUS
 62
     7
 10
-0.6797905760999417
 20
 36.823147135260641
 11
-0.4052715232615984
 21
 37.097666188098984
  0
LINE
  8
0
  6
CONTINUOUS
 62
     7
 10
-4.6328827275584334
 20
 32.954908346839247
 11
-3.6083636747201471
 21
 33.979427399677562
  0
LINE
  8
0
  6
CONTINUOUS
 62
     7
 10
-0.7108490625680677
 20
 36.876942011829627
 11
-0.4363300097297387
 21
 37.15146106466797
  0
LINE
  8
0
  6
CONTINUOUS
 62
     7
 10
-4.5169708780531952
 20
 33.155673559381583
 11
-3.4924518252149088
 21
 34.180192612219898
  0
LINE
  8
0
  6
CONTINUOUS
 62
     7
 10
-0.7419075490361937
 20
 36.930736888398613
 11
-0.4673884961978505
 21
 37.205255941236956
  0
LINE
  8
0
  6
CONTINUOUS
 62
     7
 10
-4.4010590285479569
 20
 33.356438771923948
 11
-3.3765399757096706
 21
 34.380957824762234
  0
LINE
  8
0
  6
CONTINUOUS
 62
     7
 10
-0.7729660355043055
 20
 36.984531764967599
 11
-0.4984469826659765
 21
 37.259050817805942
  0
LINE
  8
0
  6
CONTINUOUS
 62
     7
 10
-4.2851471790427187
 20
 33.557203984466284
 11
-3.2606281262044323
 21
 34.581723037304599
  0
LINE
  8
0
  6
CONTINUOUS
 62
     7
 10
-0.8040245219724316
 20
 37.038326641536585
 11
-0.5295054691341026
 21
 37.312845694374928
  0
LINE
  8
0
  6
CONTINUOUS
 62
     7
 10
-4.1692353295374804
 20
 33.757969197008649
 11
-3.1447162766991941
 21
 34.782488249846935
  0
LINE
  8
0
  6
CONTINUOUS
 62
     7
 10
-0.8350830084405576
 20
 37.092121518105571
 11
-0.5605639556022286
 21
 37.366640570943886
  0
LINE
  8
0
  6
CONTINUOUS
 62
     7
 10
-4.0533234800322706
 20
 33.958734409550985
 11
-3.02880442719397
 21
 34.983253462389271
  0
LINE
  8
0
  6
CONTINUOUS
 62
     7
 10
-0.8661414949086979
 20
 37.145916394674558
 11
-0.5916224420703546
 21
 37.420435447512872
  0
LINE
  8
0
  6
CONTINUOUS
 62
     7
 10
-3.9374116305270324
 20
 34.159499622093321
 11
-2.9128925776887318
 21
 35.184018674931608
  0
LINE
  8
0
  6
CONTINUOUS
 62
     7
 10
-0.8971999813768239
 20
 37.199711271243515
 11
-0.6226809285384665
 21
 37.474230324081887
  0
LINE
  8
0
  6
CONTINUOUS
 62
     7
 10
-3.8214997810217941
 20
 34.360264834635657
 11
-2.7969807281834935
 21
 35.384783887473972
  0
LINE
  8
0
  6
CONTINUOUS
 62
     7
 10
-0.9282584678449357
 20
 37.25350614781253
 11
-0.6537394150066067
 21
 37.528025200650845
  0
LINE
  8
0
  6
CONTINUOUS
 62
     7
 10
-3.7055879315165559
 20
 34.561030047178022
 11
-2.6810688786782553
 21
 35.585549100016308
  0
LINE
  8
0
  6
CONTINUOUS
 62
     7
 10
-0.9593169543130617
 20
 37.307301024381516
 11
-0.6847979014747327
 21
 37.581820077219831
  0
LINE
  8
0
  6
CONTINUOUS
 62
     7
 10
-3.5896760820113176
 20
 34.761795259720358
 11
-2.565157029173017
 21
 35.786314312558673
  0
LINE
  8
0
  6
CONTINUOUS
 62
     7
 10
-0.9903754407811878
 20
 37.361095900950474
 11
-0.7158563879428588
 21
 37.635614953788817
  0
LINE
  8
0
  6
CONTINUOUS
 62
     7
 10
-3.4737642325060936
 20
 34.962560472262695
 11
-2.449245179667793
 21
 35.987079525100981
  0
LINE
  8
0
  6
CONTINUOUS
 62
     7
 10
-1.0214339272493138
 20
 37.41489077751946
 11
-0.7469148744109848
 21
 37.689409830357803
  0
LINE
  8
0
  6
CONTINUOUS
 62
     7
 10
-3.3578523830008553
 20
 35.163325684805031
 11
-2.3333333301625547
 21
 36.187844737643346
  0
LINE
  8
0
  6
CONTINUOUS
 62
     7
 10
-1.0524924137174541
 20
 37.468685654088446
 11
-0.7779733608790966
 21
 37.74320470692679
  0
LINE
  8
0
  6
CONTINUOUS
 62
     7
 10
-3.2419405334956171
 20
 35.364090897347396
 11
-2.2174214806573165
 21
 36.388609950185682
  0
LINE
  8
0
  6
CONTINUOUS
 62
     7
 10
-1.0835509001855801
 20
 37.522480530657432
 11
-0.8090318473472227
 21
 37.796999583495776
  0
LINE
  8
0
  6
CONTINUOUS
 62
     7
 10
-3.1260286839903788
 20
 35.564856109889732
 11
-2.1015096311520782
 21
 36.589375162728018
  0
LINE
  8
0
  6
CONTINUOUS
 62
     7
 10
-1.1146093866536919
 20
 37.576275407226419
 11
-0.8400903338153629
 21
 37.850794460064762
  0
LINE
  8
0
  6
CONTINUOUS
 62
     7
 10
-3.0101168344851406
 20
 35.765621322432096
 11
-1.98559778164684
 21
 36.790140375270383
  0
LINE
  8
0
  6
CONTINUOUS
 62
     7
 10
-1.1456678731218179
 20
 37.630070283795405
 11
-0.8711488202834889
 21
 37.90458933663372
  0
LINE
  8
0
  6
CONTINUOUS
 62
     7
 10
-2.8942049849799165
 20
 35.966386534974404
 11
-1.8696859321416159
 21
 36.990905587812719
  0
LINE
  8
0
  6
CONTINUOUS
 62
     7
 10
-1.176726359589944
 20
 37.683865160364391
 11
-0.902207306751615
 21
 37.958384213202706
  0
LINE
  8
0
  6
CONTINUOUS
 62
     7
 10
-2.7782931354746783
 20
 36.167151747516769
 11
-1.7537740826363777
 21
 37.191670800355055
  0
LINE
  8
0
  6
CONTINUOUS
 62
     7
 10
-1.20778484605807
 20
 37.737660036933349
 11
-0.9332657932197268
 21
 38.01217908977172
  0
LINE
  8
0
  6
CONTINUOUS
 62
     7
 10
-2.66238128596944
 20
 36.367916960059105
 11
-1.6378622331311394
 21
 37.39243601289742
  0
LINE
  8
0
  6
CONTINUOUS
 62
     7
 10
-1.2388433325262103
 20
 37.791454913502335
 11
-0.9643242796878528
 21
 38.065973966340678
  0
LINE
  8
0
  6
CONTINUOUS
 62
     7
 10
-2.5464694364642018
 20
 36.568682172601441
 11
-1.5219503836259012
 21
 37.593201225439756
  0
LINE
  8
0
  6
CONTINUOUS
 62
     7
 10
-1.2699018189943221
 20
 37.84524979007135
 11
-0.9953827661559789
 21
 38.119768842909664
  0
LINE
  8
0
  6
CONTINUOUS
 62
     7
 10
-2.4305575869589777
 20
 36.769447385143778
 11
-1.4060385341206629
 21
 37.793966437982093
  0
LINE
  8
0
  6
CONTINUOUS
 62
     7
 10
-1.3009603054624481
 20
 37.899044666640307
 11
-1.0294087582563325
 21
 38.170596213846451
  0
LINE
  8
0
  6
CONTINUOUS
 62
     7
 10
-2.3146457374537395
 20
 36.970212597686142
 11
-1.0703706393630998
 21
 38.214487695776782
  0
LINE
  8
0
  6
CONTINUOUS
 62
     7
 10
-2.1987338879485012
 20
 37.170977810228479
 11
-1.118186209243385
 21
 38.251525488933638
  0
LINE
  8
0
  6
CONTINUOUS
 62
     7
 10
-2.082822038443263
 20
 37.371743022770843
 11
-1.1733052281416807
 21
 38.28125983307244
  0
LINE
  8
0
  6
CONTINUOUS
 62
     7
 10
-1.9669101889380247
 20
 37.57250823531318
 11
-1.2369564556576282
 21
 38.30246196859359
  0
LINE
  8
0
  6
CONTINUOUS
 62
     7
 10
-1.8509983394328007
 20
 37.773273447855516
 11
-1.3119346817466724
 21
 38.312337105541658
  0
LINE
  8
0
  6
CONTINUOUS
 62
     7
 10
-1.7350864899275624
 20
 37.974038660397852
 11
-1.4058484050989737
 21
 38.303276745226455
  0
LINE
  8
0
  6
CONTINUOUS
 62
     7
 10
-3.6984083743248934
 20
 32.192315439330613
 11
-3.3234083743248934
 21
 32.567315439330613
  0
LINE
  8
0
  6
CONTINUOUS
 62
     7
 10
-0.0896793332055612
 20
 35.80104448044996
 11
 0.184839719632782
 21
 36.075563533288275
  0
LINE
  8
0
  6
CONTINUOUS
 62
     7
 10
-3.6135550112877812
 20
 32.192315439330613
 11
-3.2385550112877812
 21
 32.567315439330613
  0
LINE
  8
0
  6
CONTINUOUS
 62
     7
 10
-0.058620846737421
 20
 35.747249603880974
 11
 0.215898206100908
 21
 36.021768656719289
  0
LINE
  8
0
  6
CONTINUOUS
 62
     7
 10
-3.5287016482506832
 20
 32.192315439330613
 11
-3.1537016482506832
 21
 32.567315439330613
  0
LINE
  8
0
  6
CONTINUOUS
 62
     7
 10
-0.0275623602692949
 20
 35.693454727311988
 11
 0.2469566925690341
 21
 35.967973780150331
  0
LINE
  8
0
  6
CONTINUOUS
 62
     7
 10
-3.443848285213571
 20
 32.192315439330613
 11
-3.068848285213571
 21
 32.567315439330613
  0
LINE
  8
0
  6
CONTINUOUS
 62
     7
 10
 0.0034961261988311
 20
 35.639659850743001
 11
 0.2780151790371601
 21
 35.914178903581345
  0
LINE
  8
0
  6
CONTINUOUS
 62
     7
 10
-3.3589949221764588
 20
 32.192315439330613
 11
-2.9839949221764588
 21
 32.567315439330613
  0
LINE
  8
0
  6
CONTINUOUS
 62
     7
 10
 0.0345546126669571
 20
 35.585864974174015
 11
 0.3090736655052719
 21
 35.86038402701233
  0
LINE
  8
0
  6
CONTINUOUS
 62
     7
 10
-3.2741415591393466
 20
 32.192315439330613
 11
-2.8991415591393466
 21
 32.567315439330613
  0
LINE
  8
0
  6
CONTINUOUS
 62
     7
 10
 0.065613099135069
 20
 35.532070097605029
 11
 0.340132151973398
 21
 35.806589150443372
  0
LINE
  8
0
  6
CONTINUOUS
 62
     7
 10
-3.1892881961022344
 20
 32.192315439330613
 11
-2.8142881961022344
 21
 32.567315439330613
  0
LINE
  8
0
  6
CONTINUOUS
 62
     7
 10
 0.096671585603195
 20
 35.478275221036043
 11
 0.3711906384415382
 21
 35.752794273874386
  0
LINE
  8
0
  6
CONTINUOUS
 62
     7
 10
-3.1044348330651363
 20
 32.192315439330613
 11
-2.7294348330651363
 21
 32.567315439330613
  0
LINE
  8
0
  6
CONTINUOUS
 62
     7
 10
 0.1277300720713352
 20
 35.424480344467057
 11
 0.4022491249096643
 21
 35.6989993973054
  0
LINE
  8
0
  6
CONTINUOUS
 62
     7
 10
-3.0195814700280241
 20
 32.192315439330613
 11
-2.6445814700280241
 21
 32.567315439330613
  0
LINE
  8
0
  6
CONTINUOUS
 62
     7
 10
 0.1587885585394613
 20
 35.37068546789807
 11
 0.4333076113777903
 21
 35.645204520736414
  0
LINE
  8
0
  6
CONTINUOUS
 62
     7
 10
-2.9347281069909119
 20
 32.192315439330613
 11
-2.5597281069909119
 21
 32.567315439330613
  0
LINE
  8
0
  6
CONTINUOUS
 62
     7
 10
 0.1898470450075873
 20
 35.316890591329113
 11
 0.4643660978459021
 21
 35.591409644167427
  0
LINE
  8
0
  6
CONTINUOUS
 62
     7
 10
-2.8498747439537997
 20
 32.192315439330613
 11
-2.4748747439537997
 21
 32.567315439330613
  0
LINE
  8
0
  6
CONTINUOUS
 62
     7
 10
 0.2209055314756991
 20
 35.263095714760098
 11
 0.4954245843140281
 21
 35.537614767598441
  0
LINE
  8
0
  6
CONTINUOUS
 62
     7
 10
-2.7650213809166875
 20
 32.192315439330613
 11
-2.3900213809166875
 21
 32.567315439330613
  0
LINE
  8
0
  6
CONTINUOUS
 62
     7
 10
 0.2519640179438252
 20
 35.209300838191112
 11
 0.5264830707821542
 21
 35.483819891029455
  0
LINE
  8
0
  6
CONTINUOUS
 62
     7
 10
-2.6801680178795895
 20
 32.192315439330613
 11
-2.3051680178795895
 21
 32.567315439330613
  0
LINE
  8
0
  6
CONTINUOUS
 62
     7
 10
 0.2830225044119512
 20
 35.155505961622154
 11
 0.5575415572502944
 21
 35.430025014460469
  0
LINE
  8
0
  6
CONTINUOUS
 62
     7
 10
-2.5953146548424773
 20
 32.192315439330613
 11
-2.2203146548424773
 21
 32.567315439330613
  0
LINE
  8
0
  6
CONTINUOUS
 62
     7
 10
 0.3140809908800915
 20
 35.101711085053168
 11
 0.5886000437184205
 21
 35.376230137891483
  0
LINE
  8
0
  6
CONTINUOUS
 62
     7
 10
-2.510461291805365
 20
 32.192315439330613
 11
-2.135461291805365
 21
 32.567315439330613
  0
LINE
  8
0
  6
CONTINUOUS
 62
     7
 10
 0.3451394773482175
 20
 35.047916208484182
 11
 0.6196585301865323
 21
 35.322435261322497
  0
LINE
  8
0
  6
CONTINUOUS
 62
     7
 10
-2.4256079287682528
 20
 32.192315439330613
 11
-2.0506079287682528
 21
 32.567315439330613
  0
LINE
  8
0
  6
CONTINUOUS
 62
     7
 10
 0.3761979638163435
 20
 34.994121331915196
 11
 0.6507170166546583
 21
 35.26864038475351
  0
LINE
  8
0
  6
CONTINUOUS
 62
     7
 10
-2.3407545657311406
 20
 32.192315439330613
 11
-1.9657545657311406
 21
 32.567315439330613
  0
LINE
  8
0
  6
CONTINUOUS
 62
     7
 10
 0.4072564502844553
 20
 34.940326455346209
 11
 0.6817755031227843
 21
 35.214845508184524
  0
LINE
  8
0
  6
CONTINUOUS
 62
     7
 10
-2.2559012026940426
 20
 32.192315439330613
 11
-1.8809012026940426
 21
 32.567315439330613
  0
LINE
  8
0
  6
CONTINUOUS
 62
     7
 10
 0.4383149367525814
 20
 34.886531578777223
 11
 0.7128339895909104
 21
 35.161050631615566
  0
LINE
  8
0
  6
CONTINUOUS
 62
     7
 10
-2.1710478396569304
 20
 32.192315439330613
 11
-1.7960478396569304
 21
 32.567315439330613
  0
LINE
  8
0
  6
CONTINUOUS
 62
     7
 10
 0.4693734232207074
 20
 34.832736702208237
 11
 0.7438924760590506
 21
 35.10725575504658
  0
LINE
  8
0
  6
CONTINUOUS
 62
     7
 10
-2.0861944766198182
 20
 32.192315439330613
 11
-1.7111944766198182
 21
 32.567315439330613
  0
LINE
  8
0
  6
CONTINUOUS
 62
     7
 10
 0.5004319096888477
 20
 34.778941825639279
 11
 0.7749509625271625
 21
 35.053460878477566
  0
LINE
  8
0
  6
CONTINUOUS
 62
     7
 10
-2.0013411135827059
 20
 32.192315439330613
 11
-1.6263411135827059
 21
 32.567315439330613
  0
LINE
  8
0
  6
CONTINUOUS
 62
     7
 10
 0.5314903961569737
 20
 34.725146949070293
 11
 0.8060094489952885
 21
 34.999666001908608
  0
LINE
  8
0
  6
CONTINUOUS
 62
     7
 10
-1.9164877505455937
 20
 32.192315439330613
 11
-1.5414877505455937
 21
 32.567315439330613
  0
LINE
  8
0
  6
CONTINUOUS
 62
     7
 10
 0.5625488826250855
 20
 34.671352072501278
 11
 0.8370679354634145
 21
 34.945871125339622
  0
LINE
  8
0
  6
CONTINUOUS
 62
     7
 10
-1.8316343875084957
 20
 32.192315439330613
 11
-1.4566343875084957
 21
 32.567315439330613
  0
LINE
  8
0
  6
CONTINUOUS
 62
     7
 10
 0.5936073690932116
 20
 34.617557195932321
 11
 0.8681264219315406
 21
 34.892076248770636
  0
LINE
  8
0
  6
CONTINUOUS
 62
     7
 10
-1.7467810244713835
 20
 32.192315439330613
 11
-1.3717810244713835
 21
 32.567315439330613
  0
LINE
  8
0
  6
CONTINUOUS
 62
     7
 10
 0.6246658555613376
 20
 34.563762319363335
 11
 0.8991849083996666
 21
 34.838281372201649
  0
LINE
  8
0
  6
CONTINUOUS
 62
     7
 10
-1.6619276614342713
 20
 32.192315439330613
 11
-1.2869276614342713
 21
 32.567315439330613
  0
LINE
  8
0
  6
CONTINUOUS
 62
     7
 10
 0.6557243420294636
 20
 34.509967442794348
 11
 0.9302433948677784
 21
 34.784486495632663
  0
LINE
  8
0
  6
CONTINUOUS
 62
     7
 10
-1.5770742983971591
 20
 32.192315439330613
 11
-1.2020742983971591
 21
 32.567315439330613
  0
LINE
  8
0
  6
CONTINUOUS
 62
     7
 10
 0.6867828284976039
 20
 34.456172566225362
 11
 0.9613018813359187
 21
 34.730691619063677
  0
LINE
  8
0
  6
CONTINUOUS
 62
     7
 10
-1.4922209353600469
 20
 32.192315439330613
 11
-1.1172209353600469
 21
 32.567315439330613
  0
LINE
  8
0
  6
CONTINUOUS
 62
     7
 10
 0.7178413149657157
 20
 34.402377689656376
 11
 0.9923603678040447
 21
 34.676896742494691
  0
LINE
  8
0
  6
CONTINUOUS
 62
     7
 10
-1.4073675723229488
 20
 32.192315439330613
 11
-1.0323675723229488
 21
 32.567315439330613
  0
LINE
  8
0
  6
CONTINUOUS
 62
     7
 10
 0.7488998014338417
 20
 34.34858281308739
 11
 1.0234188542721707
 21
 34.623101865925733
  0
LINE
  8
0
  6
CONTINUOUS
 62
     7
 10
-1.3225142092858366
 20
 32.192315439330613
 11
-0.9475142092858366
 21
 32.567315439330613
  0
LINE
  8
0
  6
CONTINUOUS
 62
     7
 10
 0.7799582879019678
 20
 34.294787936518404
 11
 1.0544773407402968
 21
 34.569306989356747
  0
LINE
  8
0
  6
CONTINUOUS
 62
     7
 10
-1.2376608462487244
 20
 32.192315439330613
 11
-0.8626608462487244
 21
 32.567315439330613
  0
LINE
  8
0
  6
CONTINUOUS
 62
     7
 10
 0.8110167743700938
 20
 34.240993059949417
 11
 1.0855358272084086
 21
 34.515512112787732
  0
LINE
  8
0
  6
CONTINUOUS
 62
     7
 10
-1.1528074832116122
 20
 32.192315439330613
 11
-0.7778074832116122
 21
 32.567315439330613
  0
LINE
  8
0
  6
CONTINUOUS
 62
     7
 10
 0.8420752608382198
 20
 34.187198183380431
 11
 1.1165943136765346
 21
 34.461717236218774
  0
LINE
  8
0
  6
CONTINUOUS
 62
     7
 10
-1.0679541201745
 20
 32.192315439330613
 11
-0.6929541201745
 21
 32.567315439330613
  0
LINE
  8
0
  6
CONTINUOUS
 62
     7
 10
 0.8731337473063316
 20
 34.133403306811445
 11
 1.1476528001446749
 21
 34.407922359649788
  0
LINE
  8
0
  6
CONTINUOUS
 62
     7
 10
-0.983100757137402
 20
 32.192315439330613
 11
-0.608100757137402
 21
 32.567315439330613
  0
LINE
  8
0
  6
CONTINUOUS
 62
     7
 10
 0.9041922337744719
 20
 34.079608430242459
 11
 1.1787112866128009
 21
 34.354127483080802
  0
LINE
  8
0
  6
CONTINUOUS
 62
     7
 10
-0.8982473941002898
 20
 32.192315439330613
 11
-0.5232473941002898
 21
 32.567315439330613
  0
LINE
  8
0
  6
CONTINUOUS
 62
     7
 10
 0.9352507202425979
 20
 34.025813553673473
 11
 1.2097697730809127
 21
 34.300332606511816
  0
LINE
  8
0
  6
CONTINUOUS
 62
     7
 10
-0.8133940310631775
 20
 32.192315439330613
 11
-0.4383940310631775
 21
 32.567315439330613
  0
LINE
  8
0
  6
CONTINUOUS
 62
     7
 10
 0.966309206710724
 20
 33.972018677104515
 11
 1.2408282595490387
 21
 34.24653772994283
  0
LINE
  8
0
  6
CONTINUOUS
 62
     7
 10
-0.7285406680260653
 20
 32.192315439330613
 11
-0.3535406680260653
 21
 32.567315439330613
  0
LINE
  8
0
  6
CONTINUOUS
 62
     7
 10
 0.99736769317885
 20
 33.918223800535529
 11
 1.2718867460171648
 21
 34.192742853373844
  0
LINE
  8
0
  6
CONTINUOUS
 62
     7
 10
-0.6436873049889531
 20
 32.192315439330613
 11
-0.2686873049889531
 21
 32.567315439330613
  0
LINE
  8
0
  6
CONTINUOUS
 62
     7
 10
 1.028426179646976
 20
 33.864428923966543
 11
 1.3029452324852908
 21
 34.138947976804857
  0
LINE
  8
0
  6
CONTINUOUS
 62
     7
 10
-0.5588339419518551
 20
 32.192315439330613
 11
-0.1838339419518551
 21
 32.567315439330613
  0
LINE
  8
0
  6
CONTINUOUS
 62
     7
 10
 1.0594846661150878
 20
 33.810634047397556
 11
 1.3340037189534311
 21
 34.085153100235871
  0
LINE
  8
0
  6
CONTINUOUS
 62
     7
 10
-0.4739805789147429
 20
 32.192315439330613
 11
-0.0989805789147429
 21
 32.567315439330613
  0
LINE
  8
0
  6
CONTINUOUS
 62
     7
 10
 1.0905431525832281
 20
 33.75683917082857
 11
 1.3650622054215429
 21
 34.031358223666885
  0
LINE
  8
0
  6
CONTINUOUS
 62
     7
 10
-0.3891272158776307
 20
 32.192315439330613
 11
-0.0141272158776307
 21
 32.567315439330613
  0
LINE
  8
0
  6
CONTINUOUS
 62
     7
 10
 1.1216016390513541
 20
 33.703044294259584
 11
 1.3961206918896689
 21
 33.977563347097899
  0
LINE
  8
0
  6
CONTINUOUS
 62
     7
 10
-0.3042738528405184
 20
 32.192315439330613
 11
 0.0707261471594816
 21
 32.567315439330613
  0
LINE
  8
0
  6
CONTINUOUS
 62
     7
 10
 1.1526601255194802
 20
 33.649249417690598
 11
 1.4271791783577807
 21
 33.923768470528913
  0
LINE
  8
0
  6
CONTINUOUS
 62
     7
 10
-0.2194204898034062
 20
 32.192315439330613
 11
 0.1555795101965938
 21
 32.567315439330613
  0
LINE
  8
0
  6
CONTINUOUS
 62
     7
 10
 1.1837186119876062
 20
 33.59545454112164
 11
 1.458237664825921
 21
 33.869973593959926
  0
LINE
  8
0
  6
CONTINUOUS
 62
     7
 10
-0.1345671267663082
 20
 32.192315439330613
 11
 0.2404328732336918
 21
 32.567315439330613
  0
LINE
  8
0
  6
CONTINUOUS
 62
     7
 10
 1.214777098455718
 20
 33.541659664552625
 11
 1.4892961512940612
 21
 33.816178717390969
  0
LINE
  8
0
  6
CONTINUOUS
 62
     7
 10
-0.049713763729196
 20
 32.192315439330613
 11
 0.325286236270804
 21
 32.567315439330613
  0
LINE
  8
0
  6
CONTINUOUS
 62
     7
 10
 1.2458355849238441
 20
 33.487864787983639
 11
 1.5203546377621731
 21
 33.762383840821954
  0
LINE
  8
0
  6
CONTINUOUS
 62
     7
 10
 0.0351395993079162
 20
 32.192315439330613
 11
 0.4101395993079162
 21
 32.567315439330613
  0
LINE
  8
0
  6
CONTINUOUS
 62
     7
 10
 1.2768940713919843
 20
 33.434069911414682
 11
 1.5514131242302849
 21
 33.708588964252968
  0
LINE
  8
0
  6
CONTINUOUS
 62
     7
 10
 0.1199929623450284
 20
 32.192315439330613
 11
 0.4949929623450284
 21
 32.567315439330613
  0
LINE
  8
0
  6
CONTINUOUS
 62
     7
 10
 1.3079525578601103
 20
 33.380275034845695
 11
 1.5824716106984251
 21
 33.65479408768401
  0
LINE
  8
0
  6
CONTINUOUS
 62
     7
 10
 0.2048463253821407
 20
 32.192315439330613
 11
 0.5798463253821407
 21
 32.567315439330613
  0
LINE
  8
0
  6
CONTINUOUS
 62
     7
 10
 1.3390110443282364
 20
 33.326480158276709
 11
 1.6135300971665654
 21
 33.600999211115024
  0
LINE
  8
0
  6
CONTINUOUS
 62
     7
 10
 0.2896996884192387
 20
 32.192315439330613
 11
 0.6646996884192387
 21
 32.567315439330613
  0
LINE
  8
0
  6
CONTINUOUS
 62
     7
 10
 1.3700695307963482
 20
 33.272685281707723
 11
 1.6445885836346772
 21
 33.547204334546038
  0
LINE
  8
0
  6
CONTINUOUS
 62
     7
 10
 0.3745530514563509
 20
 32.192315439330613
 11
 0.7495530514563509
 21
 32.567315439330613
  0
LINE
  8
0
  6
CONTINUOUS
 62
     7
 10
 1.4011280172644742
 20
 33.218890405138737
 11
 1.675647070102789
 21
 33.493409457977052
  0
LINE
  8
0
  6
CONTINUOUS
 62
     7
 10
 0.4594064144934631
 20
 32.192315439330613
 11
 0.8344064144934631
 21
 32.567315439330613
  0
LINE
  8
0
  6
CONTINUOUS
 62
     7
 10
 1.4321865037326145
 20
 33.165095528569751
 11
 1.7067055565709008
 21
 33.439614581408065
  0
LINE
  8
0
  6
CONTINUOUS
 62
     7
 10
 0.5442597775305753
 20
 32.192315439330613
 11
 0.9192597775305753
 21
 32.567315439330613
  0
LINE
  8
0
  6
CONTINUOUS
 62
     7
 10
 1.4632449902007263
 20
 33.111300652000764
 11
 1.7377640430390695
 21
 33.385819704839079
  0
LINE
  8
0
  6
CONTINUOUS
 62
     7
 10
 0.6291131405676875
 20
 32.192315439330613
 11
 1.0041131405676875
 21
 32.567315439330613
  0
LINE
  8
0
  6
CONTINUOUS
 62
     7
 10
 1.4943034766688665
 20
 33.057505775431778
 11
 1.7688225295071813
 21
 33.332024828270093
  0
LINE
  8
0
  6
CONTINUOUS
 62
     7
 10
 0.7139665036047855
 20
 32.192315439330613
 11
 1.0889665036047855
 21
 32.567315439330613
  0
LINE
  8
0
  6
CONTINUOUS
 62
     7
 10
 1.5253619631369784
 20
 33.003710898862792
 11
 1.7998810159752932
 21
 33.278229951701135
  0
LINE
  8
0
  6
CONTINUOUS
 62
     7
 10
 0.7988198666418978
 20
 32.192315439330613
 11
 1.1738198666418977
 21
 32.567315439330613
  0
LINE
  8
0
  6
CONTINUOUS
 62
     7
 10
 1.5564204496051186
 20
 32.949916022293806
 11
 1.830939502443405
 21
 33.224435075132121
  0
LINE
  8
0
  6
CONTINUOUS
 62
     7
 10
 0.88367322967901
 20
 32.192315439330613
 11
 1.25867322967901
 21
 32.567315439330613
  0
LINE
  8
0
  6
CONTINUOUS
 62
     7
 10
 1.5874789360732304
 20
 32.89612114572482
 11
 1.8619979889115452
 21
 33.170640198563135
  0
LINE
  8
0
  6
CONTINUOUS
 62
     7
 10
 0.9685265927161222
 20
 32.192315439330613
 11
 1.3435265927161222
 21
 32.567315439330613
  0
LINE
  8
0
  6
CONTINUOUS
 62
     7
 10
 1.6185374225413423
 20
 32.842326269155834
 11
 1.8930564753796855
 21
 33.116845321994177
  0
LINE
  8
0
  6
CONTINUOUS
 62
     7
 10
 1.0533799557532344
 20
 32.192315439330613
 11
 1.4283799557532486
 21
 32.567315439330613
  0
LINE
  8
0
  6
CONTINUOUS
 62
     7
 10
 1.6495959090095109
 20
 32.788531392586876
 11
 1.9241149618477973
 21
 33.063050445425191
  0
LINE
  8
0
  6
CONTINUOUS
 62
     7
 10
 1.1382333187903324
 20
 32.192315439330613
 11
 1.5132333187903466
 21
 32.567315439330613
  0
LINE
  8
0
  6
CONTINUOUS
 62
     7
 10
 1.6806543954776227
 20
 32.73473651601789
 11
 1.9551734483159375
 21
 33.009255568856204
  0
LINE
  8
0
  6
CONTINUOUS
 62
     7
 10
 1.2230866818274446
 20
 32.192315439330613
 11
 1.5980866818274446
 21
 32.567315439330613
  0
LINE
  8
0
  6
CONTINUOUS
 62
     7
 10
 1.7117128819457346
 20
 32.680941639448875
 11
 1.9862319347840494
 21
 32.955460692287218
  0
LINE
  8
0
  6
CONTINUOUS
 62
     7
 10
 1.3079400448645568
 20
 32.192315439330613
 11
 1.6829400448645426
 21
 32.567315439330613
  0
LINE
  8
0
  6
CONTINUOUS
 62
     7
 10
 1.7427713684138464
 20
 32.627146762879917
 11
 2.0172904212521896
 21
 32.901665815718232
  0
LINE
  8
0
  6
CONTINUOUS
 62
     7
 10
 1.3927934079016691
 20
 32.192315439330613
 11
 1.7677934079016691
 21
 32.567315439330613
  0
LINE
  8
0
  6
CONTINUOUS
 62
     7
 10
 1.7738298548819866
 20
 32.573351886310931
 11
 2.0483489077203014
 21
 32.847870939149246
  0
LINE
  8
0
  6
CONTINUOUS
 62
     7
 10
 1.4776467709387955
 20
 32.192315439330613
 11
 2.0794073941884132
 21
 32.79407606258026
  0
LINE
  8
0
  6
CONTINUOUS
 62
     7
 10
 1.5625001339758935
 20
 32.192315439330613
 11
 2.1101871378016508
 21
 32.740002443156371
  0
LINE
  8
0
  6
CONTINUOUS
 62
     7
 10
 1.6473534970129915
 20
 32.192315439330613
 11
 2.1349966949380725
 21
 32.679958637255694
  0
LINE
  8
0
  6
CONTINUOUS
 62
     7
 10
 1.7322068600500895
 20
 32.192315439330613
 11
 2.1498788508296709
 21
 32.609987430110223
  0
LINE
  8
0
  6
CONTINUOUS
 62
     7
 10
 1.8194326254127215
 20
 32.194687841656119
 11
 2.1499419282140959
 21
 32.525197144457522
  0
LINE
  8
0
  6
CONTINUOUS
 62
     7
 10
 1.9381599647259602
 20
 32.228561817932288
 11
 2.1160679519379837
 21
 32.406469805144255
  0
ARC
  8
0
  6
CONTINUOUS
 62
     3
 10
-1.3231659479906686
 20
 34.157739967713852
 40
 0.179982
 50
 180.00000307046903
 51
 0
  0
ARC
  8
0
  6
CONTINUOUS
 62
     3
 10
-1.3231659479906686
 20
 36.167538967713895
 40
 0.329967
 50
-4.2797832732897314
 51
-175.72021979717459
  0
LINE
  8
0
  6
CONTINUOUS
 62
     3
 10
-1.5026460731639961
 20
 34.144308475176544
 11
-1.652212844141653
 21
 36.142914564728827
  0
LINE
  8
0
  6
CONTINUOUS
 62
     3
 10
-1.1436858228173836
 20
 34.144308475176544
 11
-0.9941190518396414
 21
 36.142914564728827
  0
LINE
  8
0
  6
CONTINUOUS
 62
     7
 10
-1.5328524892879134
 20
 34.547945772513245
 11
-1.0795567760773626
 21
 35.001241485723781
  0
LINE
  8
0
  6
CONTINUOUS
 62
     7
 10
-1.5375788290529133
 20
 34.611102123177929
 11
-1.0740658193892845
 21
 35.074615132841572
  0
LINE
  8
0
  6
CONTINUOUS
 62
     7
 10
-1.5423051688179275
 20
 34.674258473842585
 11
-1.0685748627012064
 21
 35.147988779959334
  0
LINE
  8
0
  6
CONTINUOUS
 62
     7
 10
-1.54703150858297
 20
 34.737414824507269
 11
-1.0630839060131141
 21
 35.221362427077096
  0
LINE
  8
0
  6
CONTINUOUS
 62
     7
 10
-1.5517578483479699
 20
 34.800571175171925
 11
-1.057592949325036
 21
 35.294736074194887
  0
LINE
  8
0
  6
CONTINUOUS
 62
     7
 10
-1.5564841881129841
 20
 34.863727525836609
 11
-1.0521019926369579
 21
 35.368109721312649
  0
LINE
  8
0
  6
CONTINUOUS
 62
     7
 10
-1.5612105278779982
 20
 34.926883876501293
 11
-1.046611035948894
 21
 35.441483368430411
  0
LINE
  8
0
  6
CONTINUOUS
 62
     7
 10
-1.5659368676430123
 20
 34.990040227165949
 11
-1.0411200792608017
 21
 35.514857015548174
  0
LINE
  8
0
  6
CONTINUOUS
 62
     7
 10
-1.5706632074080122
 20
 35.053196577830633
 11
-1.0356291225727237
 21
 35.588230662665936
  0
LINE
  8
0
  6
CONTINUOUS
 62
     7
 10
-1.5753895471730406
 20
 35.116352928495317
 11
-1.0301381658846456
 21
 35.661604309783698
  0
LINE
  8
0
  6
CONTINUOUS
 62
     7
 10
-1.5801158869380547
 20
 35.179509279159973
 11
-1.0246472091965675
 21
 35.73497795690146
  0
LINE
  8
0
  6
CONTINUOUS
 62
     7
 10
-1.5848422267030688
 20
 35.242665629824657
 11
-1.0191562525084894
 21
 35.808351604019251
  0
LINE
  8
0
  6
CONTINUOUS
 62
     7
 10
-1.5895685664680688
 20
 35.305821980489341
 11
-1.0136652958204113
 21
 35.881725251136984
  0
LINE
  8
0
  6
CONTINUOUS
 62
     7
 10
-1.5942949062330971
 20
 35.368978331153997
 11
-1.0081743391323332
 21
 35.955098898254775
  0
LINE
  8
0
  6
CONTINUOUS
 62
     7
 10
-1.599021245998097
 20
 35.432134681818681
 11
-1.0026833824442551
 21
 36.028472545372537
  0
LINE
  8
0
  6
CONTINUOUS
 62
     7
 10
-1.6037475857631254
 20
 35.495291032483337
 11
-0.9971924257561771
 21
 36.101846192490299
  0
LINE
  8
0
  6
CONTINUOUS
 62
     7
 10
-1.6084739255281395
 20
 35.558447383148021
 11
-0.9932565316769288
 21
 36.173664776999246
  0
LINE
  8
0
  6
CONTINUOUS
 62
     7
 10
-1.6132002652931536
 20
 35.621603733812705
 11
-1.0001065037946635
 21
 36.234697495311181
  0
LINE
  8
0
  6
CONTINUOUS
 62
     7
 10
-1.6179266050581536
 20
 35.684760084477389
 11
-1.0156118867895376
 21
 36.287074344982344
  0
LINE
  8
0
  6
CONTINUOUS
 62
     7
 10
-1.6226529448231677
 20
 35.747916435142045
 11
-1.0376407737913471
 21
 36.332928148410232
  0
LINE
  8
0
  6
CONTINUOUS
 62
     7
 10
-1.6273792845882102
 20
 35.811072785806701
 11
-1.0651848141496405
 21
 36.373266798481595
  0
LINE
  8
0
  6
CONTINUOUS
 62
     7
 10
-1.6321056243532102
 20
 35.874229136471385
 11
-1.0977896611320634
 21
 36.408544641928884
  0
LINE
  8
0
  6
CONTINUOUS
 62
     7
 10
-1.6368319641182243
 20
 35.937385487136069
 11
-1.1353669037836571
 21
 36.438850089706975
  0
LINE
  8
0
  6
CONTINUOUS
 62
     7
 10
-1.6415583038832384
 20
 36.000541837800725
 11
-1.178163149665858
 21
 36.463936992018134
  0
LINE
  8
0
  6
CONTINUOUS
 62
     7
 10
-1.6462846436482526
 20
 36.063698188465409
 11
-1.2268483094444154
 21
 36.48313452266926
  0
LINE
  8
0
  6
CONTINUOUS
 62
     7
 10
-1.6510109834132525
 20
 36.126854539130093
 11
-1.2828333621029717
 21
 36.495031702676712
  0
LINE
  8
0
  6
CONTINUOUS
 62
     7
 10
-1.6520982691850694
 20
 36.193649486024313
 11
-1.3492764993362787
 21
 36.496471255873089
  0
LINE
  8
0
  6
CONTINUOUS
 62
     7
 10
-1.6332320234210247
 20
 36.280398422218028
 11
-1.4360254355300075
 21
 36.477605010109059
  0
LINE
  8
0
  6
CONTINUOUS
 62
     7
 10
-1.5281261495228993
 20
 34.484789421848589
 11
-1.0850477327654264
 21
 34.927867838606048
  0
LINE
  8
0
  6
CONTINUOUS
 62
     7
 10
-1.5233998097578851
 20
 34.421633071183905
 11
-1.0905386894535187
 21
 34.854494191488257
  0
LINE
  8
0
  6
CONTINUOUS
 62
     7
 10
-1.518673469992871
 20
 34.358476720519221
 11
-1.0960296461415968
 21
 34.781120544370495
  0
LINE
  8
0
  6
CONTINUOUS
 62
     7
 10
-1.5139471302278711
 20
 34.295320369854565
 11
-1.1015206028296749
 21
 34.707746897252733
  0
LINE
  8
0
  6
CONTINUOUS
 62
     7
 10
-1.5092207904628285
 20
 34.232164019189881
 11
-1.107011559517753
 21
 34.634373250134971
  0
LINE
  8
0
  6
CONTINUOUS
 62
     7
 10
-1.5044944506978286
 20
 34.169007668525197
 11
-1.1125025162058311
 21
 34.560999603017208
  0
LINE
  8
0
  6
CONTINUOUS
 62
     7
 10
-1.4964660771018803
 20
 34.109152893927799
 11
-1.1179934728939092
 21
 34.487625955899446
  0
LINE
  8
0
  6
CONTINUOUS
 62
     7
 10
-1.4756351655719246
 20
 34.062101115028085
 11
-1.1234844295819872
 21
 34.414252308781684
  0
LINE
  8
0
  6
CONTINUOUS
 62
     7
 10
-1.4447865091236256
 20
 34.025067081046686
 11
-1.1289753862700653
 21
 34.340878661663893
  0
LINE
  8
0
  6
CONTINUOUS
 62
     7
 10
-1.4046907555069996
 20
 33.997280144233642
 11
-1.1344663429581434
 21
 34.267505014546131
  0
LINE
  8
0
  6
CONTINUOUS
 62
     7
 10
-1.3537184135545832
 20
 33.980369795756346
 11
-1.1399572996462357
 21
 34.194131367428369
  0
LINE
  8
0
  6
CONTINUOUS
 62
     7
 10
-1.2841731300609442
 20
 33.982032388820315
 11
-1.1474589016439953
 21
 34.118746617237278
  0
CIRCLE
  8
0
  6
CONTINUOUS
 62
     3
 10
-1.3231659479906686
 20
 33.467808967713822
 40
 0.329967
  0
LINE
  8
0
  6
CONTINUOUS
 62
     7
 10
-1.5564880778115597
 20
 33.234486880766966
 11
-1.0898442712761867
 21
 33.701130687302324
  0
LINE
  8
0
  6
CONTINUOUS
 62
     7
 10
-1.5879474950105337
 20
 33.270910153997661
 11
-1.1262675445068968
 21
 33.732590104501313
  0
LINE
  8
0
  6
CONTINUOUS
 62
     7
 10
-1.614277554827888
 20
 33.312462784609991
 11
-1.1678201751192265
 21
 33.758920164318667
  0
LINE
  8
0
  6
CONTINUOUS
 62
     7
 10
-1.6349210843920705
 20
 33.359701945475521
 11
-1.2150593359847566
 21
 33.779563693882849
  0
LINE
  8
0
  6
CONTINUOUS
 62
     7
 10
-1.6486863078701166
 20
 33.413819412427145
 11
-1.2691768029363946
 21
 33.793328917360881
  0
LINE
  8
0
  6
CONTINUOUS
 62
     7
 10
-1.6529938873550467
 20
 33.477394523371899
 11
-1.3327519138811343
 21
 33.797636496845811
  0
LINE
  8
0
  6
CONTINUOUS
 62
     7
 10
-1.640685071216291
 20
 33.557586029940339
 11
-1.4129434204495741
 21
 33.785327680707084
  0
LINE
  8
0
  6
CONTINUOUS
 62
     7
 10
-1.5200648108847989
 20
 33.203027457264042
 11
-1.0583848477732776
 21
 33.664707420375564
  0
LINE
  8
0
  6
CONTINUOUS
 62
     7
 10
-1.4785121870062969
 20
 33.176697390712846
 11
-1.0320547812220813
 21
 33.623154796497047
  0
LINE
  8
0
  6
CONTINUOUS
 62
     7
 10
-1.4312730338984441
 20
 33.156053853391015
 11
-1.0114112439002358
 21
 33.575915643389223
  0
LINE
  8
0
  6
CONTINUOUS
 62
     7
 10
-1.3771555768267891
 20
 33.142288620032971
 11
-0.9976460105422067
 21
 33.521798186317554
  0
LINE
  8
0
  6
CONTINUOUS
 62
     7
 10
-1.3135804806472979
 20
 33.137981025782764
 11
-0.9933384162919996
 21
 33.458223090138077
  0
LINE
  8
0
  6
CONTINUOUS
 62
     7
 10
-1.2333890053146153
 20
 33.150289810685777
 11
-1.0056472011949982
 21
 33.37803161480538
  0
ENDBLK
  8
0
  0
ENDSEC
  0
SECTION
  2
ENTITIES
  0
LINE
  8
0
  6
CONTINUOUS
 62
     3
 10
-15.519995231628421
 20
 41.660010549589401
 11
 26.520004768371585
 21
 41.660010549589401
  0
LINE
  8
0
  6
CONTINUOUS
 62
     3
 10
-15.519995231628421
 20
 41.660010549589401
 11
 26.520004768371585
 21
 41.660010549589401
  0
LINE
  8
0
  6
CONTINUOUS
 62
     3
 10
 26.520004768371585
 20
 41.660010549589401
 11
 26.520004768371585
 21
-7.3599894504106036
  0
LINE
  8
0
  6
CONTINUOUS
 62
     3
 10
 26.520004768371585
 20
-7.3599894504106036
 11
-15.519995231628421
 21
-7.3599894504106036
  0
LINE
  8
0
  6
CONTINUOUS
 62
     3
 10
-15.519995231628421
 20
-7.3599894504106036
 11
-15.519995231628421
 21
 41.660010549589401
  0
LINE
  8
0
  6
CONTINUOUS
 62
     2
 10
-13.499995231628411
 20
 39.660010549589401
 11
 24.500004768371575
 21
 39.660010549589401
  0
LINE
  8
0
  6
CONTINUOUS
 62
     2
 10
 24.500004768371561
 20
 39.660010549589401
 11
 24.500004768371575
 21
-5.8399894504106031
  0
LINE
  8
0
  6
CONTINUOUS
 62
     2
 10
 24.500004768371561
 20
-5.8399894504106031
 11
-13.499995231628411
 21
-5.8399894504106031
  0
LINE
  8
0
  6
CONTINUOUS
 62
     2
 10
-13.499995231628411
 20
-5.8399894504106031
 11
-13.499995231628411
 21
 39.660010549589401
  0
LINE
  8
0
  6
CONTINUOUS
 62
     2
 10
-13.499995231628411
 20
 30.640010549589409
 11
 24.500004768371575
 21
 30.640010549589409
  0
LINE
  8
0
  6
CONTINUOUS
 62
     2
 10
-13.499995231628411
 20
 9.260010549589385
 11
 24.500004768371575
 21
 9.260010549589385
  0
TEXT
  8
0
  6
CONTINUOUS
 62
     2
 10
-10.339995231628418
 20
 2.8300105495893781
 11
 21.700004768371581
 21
 2.8300105495893781
 40
 4.5
 41
 0.8
  1
感電の恐れあり
 50
 0
 72
  5
  0
TEXT
  8
0
  6
CONTINUOUS
 62
     2
 10
-10.339995231628418
 20
-2.8699894504106318
 11
 21.700004768371581
 21
-2.8699894504106318
 40
 4.5
 41
 0.8
  1
保護板を開くな
 50
 0
 72
  5
  0
TEXT
  8
0
  6
CONTINUOUS
 62
     4
 10
 3.1590018613913213
 20
 31.770573710267698
 11
 17.399001861391323
 21
 31.770573710267698
 40
 7
 41
 0.8
  1
警告
 50
 0
 72
  5
  0
LINE
  8
0
  6
CONTINUOUS
 62
     7
 10
 24.500004768371561
 20
 49.535274820202503
 11
 26.520004768371585
 21
 49.535274820202503
  0
TEXT
  8
0
  6
CONTINUOUS
 62
     7
 10
 28.10000476837158
 20
 50.535274820202496
 11
 29.860004768371581
 21
 50.535274820202496
 40
 2.2000000000000002
 41
 0.8
  1
２
 50
 0
 72
  5
  0
LINE
  8
0
  6
CONTINUOUS
 62
     7
 10
 31.620004768371579
 20
 49.535274820202503
 11
 26.520004768371585
 21
 49.535274820202503
  0
LINE
  8
0
  6
CONTINUOUS
 62
     7
 10
 26.520004768371585
 20
 49.535274820202503
 11
 29.41778224723879
 21
 48.758817684894943
  0
LINE
  8
0
  6
CONTINUOUS
 62
     7
 10
 26.520004768371585
 20
 49.535274820202503
 11
 29.41778224723879
 21
 50.311731955510062
  0
TEXT
  8
0
  6
CONTINUOUS
 62
     7
 10
 16.480279107884439
 20
-5.1645137633069966
 11
 23.58027910788444
 21
-5.1645137633069966
 40
 1
 41
 0.8
  1
Ｉ－４５７１１Ａ
 50
 0
 72
  5
  0
TEXT
  8
0
  6
CONTINUOUS
 62
     7
 10
-38.901496288710902
 20
 28.22493655381783
 11
-32.801496288710901
 21
 28.22493655381783
 40
 3.5000000000000004
 41
 0.8
  1
黒色
 50
 0
 72
  5
  0
LINE
  8
0
  6
CONTINUOUS
 62
     7
 10
-42.829191848964619
 20
 27.311088773690972
 11
-22.734054428245763
 21
 27.311088773690972
  0
LINE
  8
0
  6
CONTINUOUS
 62
     7
 10
-22.734054428245763
 20
 27.311088773690972
 11
 0.0152147416798494
 21
 19.537287582601486
  0
LINE
  8
0
  6
CONTINUOUS
 62
     7
 10
 0.0152147416798494
 20
 19.537287582601486
 11
-2.475810346570285
 21
 21.20905132479367
  0
LINE
  8
0
  6
CONTINUOUS
 62
     7
 10
 0.0152147416798494
 20
 19.537287582601486
 11
-2.9779581373052317
 21
 19.73956490834059
  0
TEXT
  8
0
  6
CONTINUOUS
 62
     7
 10
-43.265217218943462
 20
 23.991215623585262
 11
-25.685217218943457
 21
 23.991215623585258
 40
 2.2000000000000002
 41
 0.8
  1
マンセル（Ｎ１）
 50
 0
 72
  5
  0
LINE
  8
0
  6
CONTINUOUS
 62
     7
 10
-22.734054428245763
 20
 27.311088773690972
 11
 4.2062588749187668
 21
 21.221784912228326
  0
LINE
  8
0
  6
CONTINUOUS
 62
     7
 10
 4.2062588749187668
 20
 21.221784912228326
 11
 1.5509671909847591
 21
 22.618003402734345
  0
LINE
  8
0
  6
CONTINUOUS
 62
     7
 10
 4.2062588749187668
 20
 21.221784912228326
 11
 1.2085995769213471
 21
 21.103299752273095
  0
LINE
  8
0
  6
CONTINUOUS
 62
     7
 10
-22.734054428245763
 20
 27.311088773690972
 11
-13.499995231628411
 21
 16.910010549589394
  0
LINE
  8
0
  6
CONTINUOUS
 62
     7
 10
-13.499995231628411
 20
 16.910010549589394
 11
-14.843207569713183
 21
 19.592505771359015
  0
LINE
  8
0
  6
CONTINUOUS
 62
     7
 10
-13.499995231628411
 20
 16.910010549589394
 11
-16.004498849971327
 21
 18.561513388129871
  0
LINE
  8
0
  6
CONTINUOUS
 62
     7
 10
-22.734054428245763
 20
 27.311088773690972
 11
-3.3901121521029829
 21
 35.11499512755978
  0
LINE
  8
0
  6
CONTINUOUS
 62
     7
 10
-3.3901121521029829
 20
 35.11499512755978
 11
-6.3679379778705965
 21
 34.750916356699086
  0
LINE
  8
0
  6
CONTINUOUS
 62
     7
 10
-3.3901121521029829
 20
 35.11499512755978
 11
-5.7869455798327634
 21
 33.310780750131997
  0
TEXT
  8
0
  6
CONTINUOUS
 62
     7
 10
-38.901496288710902
 20
 7.474936553817713
 11
-32.801496288710901
 21
 7.474936553817713
 40
 3.5000000000000004
 41
 0.8
  1
黄色
 50
 0
 72
  5
  0
LINE
  8
0
  6
CONTINUOUS
 62
     7
 10
-42.829191848964619
 20
 6.5610887736908623
 11
-22.734054428245763
 21
 6.5610887736908623
  0
TEXT
  8
0
  6
CONTINUOUS
 62
     7
 10
-43.265217218943462
 20
 3.2412156235851421
 11
-34.725217218943463
 21
 3.2412156235851426
 40
 2.2000000000000002
 41
 0.8
  1
マンセル
 50
 0
 72
  5
  0
TEXT
  8
0
  6
CONTINUOUS
 62
     7
 10
-43.265217218943462
 20
 0.2412156235851444
 11
-23.865217218943457
 21
 0.2412156235851444
 40
 2.2000000000000002
 41
 0.8
  1
（２．５Ｙ８／１４）
 50
 0
 72
  5
  0
LINE
  8
0
  6
CONTINUOUS
 62
     7
 10
-22.734054428245763
 20
 6.5610887736908623
 11
 1.2365885201245588
 21
 15.068812451046213
  0
LINE
  8
0
  6
CONTINUOUS
 62
     7
 10
 1.2365885201245588
 20
 15.068812451046213
 11
-1.753994591829994
 21
 14.831298976707968
  0
LINE
  8
0
  6
CONTINUOUS
 62
     7
 10
 1.2365885201245588
 20
 15.068812451046213
 11
-1.234575689787683
 21
 13.367828192550913
  0
LINE
  8
0
  6
CONTINUOUS
 62
     7
 10
-22.734054428245763
 20
 6.5610887736908623
 11
-2.6793870329748142
 21
 33.43562045091015
  0
LINE
  8
0
  6
CONTINUOUS
 62
     7
 10
-2.6793870329748142
 20
 33.43562045091015
 11
-5.0347387031223061
 21
 31.57757887173776
  0
LINE
  8
0
  6
CONTINUOUS
 62
     7
 10
-2.6793870329748142
 20
 33.43562045091015
 11
-3.7901606245824531
 21
 30.648833406985361
  0
LINE
  8
0
  6
CONTINUOUS
 62
     7
 10
-15.519995231628421
 20
 43.660010549589401
 11
-15.519995231628421
 21
 55.535274820202503
  0
LINE
  8
0
  6
CONTINUOUS
 62
     7
 10
 26.520004768371585
 20
 43.660010549589401
 11
 26.520004768371585
 21
 55.535274820202503
  0
LINE
  8
0
  6
CONTINUOUS
 62
     7
 10
-15.519995231628421
 20
 54.535274820202503
 11
 26.520004768371585
 21
 54.535274820202503
  0
LINE
  8
0
  6
CONTINUOUS
 62
     7
 10
-15.519995231628421
 20
 54.535274820202503
 11
-12.622217752761216
 21
 53.758817684894943
  0
LINE
  8
0
  6
CONTINUOUS
 62
     7
 10
-15.519995231628421
 20
 54.535274820202503
 11
-12.622217752761216
 21
 55.311731955510062
  0
LINE
  8
0
  6
CONTINUOUS
 62
     7
 10
 26.520004768371585
 20
 54.535274820202503
 11
 23.62222728950438
 21
 55.311731955510062
  0
LINE
  8
0
  6
CONTINUOUS
 62
     7
 10
 26.520004768371585
 20
 54.535274820202503
 11
 23.62222728950438
 21
 53.758817684894943
  0
TEXT
  8
0
  6
CONTINUOUS
 62
     7
 10
 3.4900047683715654
 20
 55.535274820202496
 11
 7.5100047683715649
 21
 55.535274820202496
 40
 2.2000000000000002
 41
 0.8
  1
42
 50
 0
 72
  5
  0
LINE
  8
0
  6
CONTINUOUS
 62
     7
 10
-13.499995231628411
 20
 43.660010549589401
 11
-13.499995231628411
 21
 50.535274820202503
  0
LINE
  8
0
  6
CONTINUOUS
 62
     7
 10
 24.500004768371561
 20
 43.660010549589401
 11
 24.500004768371561
 21
 50.535274820202503
  0
LINE
  8
0
  6
CONTINUOUS
 62
     7
 10
-13.499995231628411
 20
 49.535274820202503
 11
 24.500004768371561
 21
 49.535274820202503
  0
LINE
  8
0
  6
CONTINUOUS
 62
     7
 10
-13.499995231628411
 20
 49.535274820202503
 11
-10.602217752761206
 21
 48.758817684894943
  0
LINE
  8
0
  6
CONTINUOUS
 62
     7
 10
-13.499995231628411
 20
 49.535274820202503
 11
-10.602217752761206
 21
 50.311731955510062
  0
LINE
  8
0
  6
CONTINUOUS
 62
     7
 10
 24.500004768371561
 20
 49.535274820202503
 11
 21.602227289504356
 21
 50.311731955510062
  0
LINE
  8
0
  6
CONTINUOUS
 62
     7
 10
 24.500004768371561
 20
 49.535274820202503
 11
 21.602227289504356
 21
 48.758817684894943
  0
TEXT
  8
0
  6
CONTINUOUS
 62
     7
 10
 3.4900047683715654
 20
 50.535274820202496
 11
 7.5100047683715649
 21
 50.535274820202496
 40
 2.2000000000000002
 41
 0.8
  1
38
 50
 0
 72
  5
  0
LINE
  8
0
  6
CONTINUOUS
 62
     7
 10
 28.020004768371585
 20
 39.660010549589401
 11
 49.605628447018539
 21
 39.660010549589401
  0
LINE
  8
0
  6
CONTINUOUS
 62
     7
 10
 28.020004768371585
 20
-5.8399894504106031
 11
 49.605628447018539
 21
-5.8399894504106031
  0
LINE
  8
0
  6
CONTINUOUS
 62
     7
 10
 48.605628447018539
 20
 39.660010549589401
 11
 48.605628447018539
 21
-5.8399894504106031
  0
LINE
  8
0
  6
CONTINUOUS
 62
     7
 10
 48.605628447018539
 20
 39.660010549589401
 11
 47.829171311710979
 21
 36.762233070722196
  0
LINE
  8
0
  6
CONTINUOUS
 62
     7
 10
 48.605628447018539
 20
 39.660010549589401
 11
 49.382085582326098
 21
 36.762233070722196
  0
LINE
  8
0
  6
CONTINUOUS
 62
     7
 10
 48.605628447018539
 20
-5.8399894504106031
 11
 49.382085582326098
 21
-2.9422119715433981
  0
LINE
  8
0
  6
CONTINUOUS
 62
     7
 10
 48.605628447018539
 20
-5.8399894504106031
 11
 47.829171311710979
 21
-2.9422119715433981
  0
TEXT
  8
0
  6
CONTINUOUS
 62
     7
 10
 47.605628447018546
 20
 12.640010549589391
 11
 47.605628447018546
 21
 21.18001054958939
 40
 2.2000000000000002
 41
 0.8
  1
45.5
 50
 90.000001535234517
 72
  5
  0
LINE
  8
0
  6
CONTINUOUS
 62
     7
 10
 28.020004768371585
 20
 41.660010549589401
 11
 54.605628447018518
 21
 41.660010549589401
  0
LINE
  8
0
  6
CONTINUOUS
 62
     7
 10
 28.020004768371585
 20
-7.8399894504106022
 11
 54.605628447018518
 21
-7.8399894504106022
  0
LINE
  8
0
  6
CONTINUOUS
 62
     7
 10
 53.605628447018532
 20
 41.660010549589401
 11
 53.605628447018532
 21
-7.8399894504106022
  0
LINE
  8
0
  6
CONTINUOUS
 62
     7
 10
 53.605628447018532
 20
 41.660010549589401
 11
 52.829171311710972
 21
 38.762233070722196
  0
LINE
  8
0
  6
CONTINUOUS
 62
     7
 10
 53.605628447018532
 20
 41.660010549589401
 11
 54.382085582326091
 21
 38.762233070722196
  0
LINE
  8
0
  6
CONTINUOUS
 62
     7
 10
 53.605628447018532
 20
-7.8399894504106022
 11
 54.382085582326091
 21
-4.9422119715433972
  0
LINE
  8
0
  6
CONTINUOUS
 62
     7
 10
 53.605628447018532
 20
-7.8399894504106022
 11
 52.829171311710972
 21
-4.9422119715433972
  0
TEXT
  8
0
  6
CONTINUOUS
 62
     7
 10
 52.605628447018532
 20
 12.640010549589391
 11
 52.605628447018532
 21
 21.18001054958939
 40
 2.2000000000000002
 41
 0.8
  1
49.5
 50
 90.000001535234517
 72
  5
  0
LINE
  8
0
  6
CONTINUOUS
 62
     7
 10
 28.020004768371585
 20
 30.640010549589409
 11
 44.605628447018553
 21
 30.640010549589409
  0
LINE
  8
0
  6
CONTINUOUS
 62
     7
 10
 43.605628447018553
 20
 30.640010549589409
 11
 43.605628447018553
 21
 39.660010549589401
  0
LINE
  8
0
  6
CONTINUOUS
 62
     7
 10
 43.605628447018553
 20
 30.640010549589409
 11
 44.382085582326113
 21
 33.537788028456617
  0
LINE
  8
0
  6
CONTINUOUS
 62
     7
 10
 43.605628447018553
 20
 30.640010549589409
 11
 42.829171311710994
 21
 33.537788028456617
  0
LINE
  8
0
  6
CONTINUOUS
 62
     7
 10
 43.605628447018553
 20
 39.660010549589401
 11
 42.829171311710994
 21
 36.762233070722196
  0
LINE
  8
0
  6
CONTINUOUS
 62
     7
 10
 43.605628447018553
 20
 39.660010549589401
 11
 44.382085582326113
 21
 36.762233070722196
  0
TEXT
  8
0
  6
CONTINUOUS
 62
     7
 10
 42.605628447018532
 20
 34.270010549589394
 11
 42.605628447018532
 21
 36.030010549589392
 40
 2.2000000000000002
 41
 0.8
  1
9
 50
 90.000001535234517
 72
  5
  0
LINE
  8
0
  6
CONTINUOUS
 62
     7
 10
 28.020004768371585
 20
 9.680010549589376
 11
 44.605628447018553
 21
 9.680010549589376
  0
LINE
  8
0
  6
CONTINUOUS
 62
     7
 10
 43.605628447018553
 20
 9.680010549589376
 11
 43.605628447018553
 21
 30.640010549589409
  0
LINE
  8
0
  6
CONTINUOUS
 62
     7
 10
 43.605628447018553
 20
 9.680010549589376
 11
 44.382085582326113
 21
 12.577788028456581
  0
LINE
  8
0
  6
CONTINUOUS
 62
     7
 10
 43.605628447018553
 20
 9.680010549589376
 11
 42.829171311710994
 21
 12.577788028456581
  0
LINE
  8
0
  6
CONTINUOUS
 62
     7
 10
 43.605628447018553
 20
 30.640010549589409
 11
 42.829171311710994
 21
 27.742233070722204
  0
LINE
  8
0
  6
CONTINUOUS
 62
     7
 10
 43.605628447018553
 20
 30.640010549589409
 11
 44.382085582326113
 21
 27.742233070722204
  0
TEXT
  8
0
  6
CONTINUOUS
 62
     7
 10
 42.605628447018532
 20
 18.1500105495894
 11
 42.605628447018532
 21
 22.170010549589403
 40
 2.2000000000000002
 41
 0.8
  1
21
 50
 90.000001535234517
 72
  5
  0
LINE
  8
0
  6
CONTINUOUS
 62
     7
 10
 43.605628447018553
 20
 9.680010549589376
 11
 43.605628447018553
 21
-5.8399894504106031
  0
LINE
  8
0
  6
CONTINUOUS
 62
     7
 10
 43.605628447018553
 20
 9.680010549589376
 11
 42.829171311710994
 21
 6.782233070722171
  0
LINE
  8
0
  6
CONTINUOUS
 62
     7
 10
 43.605628447018553
 20
 9.680010549589376
 11
 44.382085582326113
 21
 6.782233070722171
  0
LINE
  8
0
  6
CONTINUOUS
 62
     7
 10
 43.605628447018553
 20
-5.8399894504106031
 11
 44.382085582326113
 21
-2.9422119715433985
  0
LINE
  8
0
  6
CONTINUOUS
 62
     7
 10
 43.605628447018553
 20
-5.8399894504106031
 11
 42.829171311710994
 21
-2.9422119715433985
  0
TEXT
  8
0
  6
CONTINUOUS
 62
     7
 10
 42.605628447018532
 20
-2.3499894504106145
 11
 42.605628447018532
 21
 6.1900105495893847
 40
 2.2000000000000002
 41
 0.8
  1
15.5
 50
 90.000001535234517
 72
  5
  0
LINE
  8
0
  6
CONTINUOUS
 62
     7
 10
 48.605628447018539
 20
 39.660010549589401
 11
 48.605628447018539
 21
 41.660010549589401
  0
TEXT
  8
0
  6
CONTINUOUS
 62
     7
 10
 47.605628447018546
 20
 46.030010549589399
 11
 47.605628447018546
 21
 47.790010549589397
 40
 2.2000000000000002
 41
 0.8
  1
2
 50
 90.000001535234517
 72
  5
  0
LINE
  8
0
  6
CONTINUOUS
 62
     7
 10
 48.605628447018539
 20
 49.550010549589388
 11
 48.605628447018539
 21
 41.660010549589401
  0
LINE
  8
0
  6
CONTINUOUS
 62
     7
 10
 48.605628447018539
 20
 41.660010549589401
 11
 49.382085582326098
 21
 44.557788028456606
  0
LINE
  8
0
  6
CONTINUOUS
 62
     7
 10
 48.605628447018539
 20
 41.660010549589401
 11
 47.829171311710979
 21
 44.557788028456606
  0
LINE
  8
0
  6
CONTINUOUS
 62
     7
 10
 48.605628447018539
 20
 34.180010549589412
 11
 48.605628447018539
 21
 39.660010549589401
  0
LINE
  8
0
  6
CONTINUOUS
 62
     7
 10
 48.605628447018539
 20
 39.660010549589401
 11
 47.829171311710979
 21
 36.762233070722196
  0
LINE
  8
0
  6
CONTINUOUS
 62
     7
 10
 48.605628447018539
 20
 39.660010549589401
 11
 49.382085582326098
 21
 36.762233070722196
  0
LINE
  8
0
  6
CONTINUOUS
 62
     7
 10
 48.605628447018539
 20
-5.8399894504106031
 11
 48.605628447018539
 21
-7.8399894504106022
  0
TEXT
  8
0
  6
CONTINUOUS
 62
     7
 10
 47.605628447018546
 20
-13.969989450410615
 11
 47.605628447018546
 21
-12.209989450410617
 40
 2.2000000000000002
 41
 0.8
  1
2
 50
 90.000001535234517
 72
  5
  0
LINE
  8
0
  6
CONTINUOUS
 62
     7
 10
 48.605628447018539
 20
-15.72998945041061
 11
 48.605628447018539
 21
-7.8399894504106022
  0
LINE
  8
0
  6
CONTINUOUS
 62
     7
 10
 48.605628447018539
 20
-7.8399894504106022
 11
 47.829171311710979
 21
-10.737766929277807
  0
LINE
  8
0
  6
CONTINUOUS
 62
     7
 10
 48.605628447018539
 20
-7.8399894504106022
 11
 49.382085582326098
 21
-10.737766929277807
  0
LINE
  8
0
  6
CONTINUOUS
 62
     7
 10
 48.605628447018539
 20
-0.9399894504106126
 11
 48.605628447018539
 21
-5.8399894504106031
  0
LINE
  8
0
  6
CONTINUOUS
 62
     7
 10
 48.605628447018539
 20
-5.8399894504106031
 11
 49.382085582326098
 21
-2.9422119715433981
  0
LINE
  8
0
  6
CONTINUOUS
 62
     7
 10
 48.605628447018539
 20
-5.8399894504106031
 11
 47.829171311710979
 21
-2.9422119715433981
  0
LINE
  8
0
  6
CONTINUOUS
 62
     7
 10
-13.499995231628411
 20
 49.535274820202503
 11
-15.519995231628421
 21
 49.535274820202503
  0
TEXT
  8
0
  6
CONTINUOUS
 62
     7
 10
-21.14999523162842
 20
 50.535274820202496
 11
-19.389995231628419
 21
 50.535274820202496
 40
 2.2000000000000002
 41
 0.8
  1
2
 50
 0
 72
  5
  0
LINE
  8
0
  6
CONTINUOUS
 62
     7
 10
-22.909995231628436
 20
 49.535274820202503
 11
-15.519995231628421
 21
 49.535274820202503
  0
LINE
  8
0
  6
CONTINUOUS
 62
     7
 10
-15.519995231628421
 20
 49.535274820202503
 11
-18.417772710495626
 21
 50.311731955510062
  0
LINE
  8
0
  6
CONTINUOUS
 62
     7
 10
-15.519995231628421
 20
 49.535274820202503
 11
-18.417772710495626
 21
 48.758817684894943
  0
LINE
  8
0
  6
CONTINUOUS
 62
     7
 10
-8.0199952316284353
 20
 49.535274820202503
 11
-13.499995231628411
 21
 49.535274820202503
  0
LINE
  8
0
  6
CONTINUOUS
 62
     7
 10
-13.499995231628411
 20
 49.535274820202503
 11
-10.602217752761206
 21
 48.758817684894943
  0
LINE
  8
0
  6
CONTINUOUS
 62
     7
 10
-13.499995231628411
 20
 49.535274820202503
 11
-10.602217752761206
 21
 50.311731955510062
  0
INSERT
  8
0
  2
CADWIN-G0
 10
0.0
 20
0.0
  0
INSERT
  8
0
  2
CADWIN-G1
 10
0.0
 20
0.0
  0
LINE
  8
256
  6
CONTINUOUS
 62
     7
 10
-87.500005722045898
 20
 128.40000840015884
 11
 12.499994277954102
 21
 128.40000840015884
  0
LINE
  8
256
  6
CONTINUOUS
 62
     7
 10
 12.499994277954102
 20
 128.40000840015887
 11
 12.499994277954102
 21
 140.40000915527344
  0
TEXT
  8
256
  6
CONTINUOUS
 62
     7
 10
-82.500005722045898
 20
 131.40000799208147
 11
-34.500005722045898
 21
 131.40000799208147
 40
 6
 41
 1
  1
Ｉ－４５７１１Ａ
 50
 0
 72
  5
  0
LINE
  8
256
  6
CONTINUOUS
 62
     7
 10
 3.5
 20
-118.09998805609465
 11
 98.500015258789063
 21
-118.09998805609465
  0
LINE
  8
256
  6
CONTINUOUS
 62
     7
 10
 69.5
 20
-106.09998805609465
 11
 69.5
 21
-118.09998805609465
  0
TEXT
  8
256
  6
CONTINUOUS
 62
     7
 10
 11.000015258789063
 20
-130.84998805609465
 11
 53.000015258789063
 21
-130.84998805609465
 40
 6
 41
 1
  1
Ｉ－４５７１１
 50
 0
 72
  5
  0
TEXT
  8
256
  6
CONTINUOUS
 62
     7
 10
 22.5
 20
-116.34998805609465
 11
 50.5
 21
-116.34998805609465
 40
 5
 41
 0.8
  1
感電危険ラベル
 50
 0
 72
  5
  0
TEXT
  8
256
  6
CONTINUOUS
 62
     7
 10
 4.8000030517578125
 20
-109.04995143500085
 11
 9.8000030517578125
 21
-109.04995143500085
 40
 2.5
 41
 0.8
  1
品名
 50
 0
 72
  5
  0
TEXT
  8
256
  6
CONTINUOUS
 62
     7
 10
 4.8000030517578125
 20
-121.05001857367276
 11
 9.8000030517578125
 21
-121.05001857367276
 40
 2.5
 41
 0.8
  1
品番
 50
 0
 72
  5
  0
LINE
  8
256
  6
CONTINUOUS
 62
     7
 10
 3.5
 20
-136.09998805609465
 11
 3.5
 21
-106.09998805609465
  0
LINE
  8
256
  6
CONTINUOUS
 62
     7
 10
 3.5
 20
-106.09998805609465
 11
 98.500015258789063
 21
-106.09998805609465
  0
LINE
  8
256
  6
CONTINUOUS
 62
     7
 10
-87.500005722045898
 20
 140.40000915527344
 11
-87.500005722045898
 21
-136.09998805609459
  0
LINE
  8
256
  6
CONTINUOUS
 62
     7
 10
-87.500005722045898
 20
 140.40000915527344
 11
 98.500015258789063
 21
 140.40000915527344
  0
LINE
  8
256
  6
CONTINUOUS
 62
     7
 10
 98.500015258789063
 20
-136.09998805609465
 11
-87.500005722045898
 21
-136.09998805609459
  0
LINE
  8
256
  6
CONTINUOUS
 62
     7
 10
 98.500015258789063
 20
 140.40000915527344
 11
 98.500015258789063
 21
-136.09998805609465
  0
TEXT
  8
256
  6
CONTINUOUS
 62
     7
 10
 74.350007629394526
 20
-110.84998805609465
 11
 93.650007629394537
 21
-110.84998805609465
 40
 3.5
 41
 0.8
  1
Ｗ：４２ｍｍ
 50
 0
 72
  5
  0
TEXT
  8
256
  6
CONTINUOUS
 62
     7
 10
 71.050007629394528
 20
-116.84998805609465
 11
 96.950007629394534
 21
-116.84998805609465
 40
 3.5
 41
 0.8
  1
Ｈ：４９．５ｍｍ
 50
 0
 72
  5
  0
ENDSEC
  0
EOF
