  0
SECTION
  2
HEADER
  9
$INSBASE
 10
0.0
20
0.0
  9
$REGENMODE
 70
     1
  9
$DRAGMODE
 70
     1
  9
$DIMTAD
 70
     1
  9
$EXTMIN
 10
-210.000000
 20
-148.500000
 30
 0.0
  9
$EXTMAX
 10
210.000000
 20
148.500000
 30
 0.0
  9
$LUPREC
 70
    3
  9
$AUPREC
 70
    3
  9
$LTSCALE
 40
26.250000
  0
ENDSEC
  0
SECTION
  2
TABLES
  0
TABLE
  2
LTYPE
 70
     6
  0
LTYPE
  2
CONTINUOUS
 70
    64
  3
SOLID
 72
    65
 73
     0
 40
0.0
  0
LTYPE
  2
DASHED2
 70
    64
  3
_ _ _ _ _ _ _ _ _ _ _ _ _ _ _ _ _ _ _ _ _ _ 
 72
    65
 73
     2
 40
0.5
 49
0.25
 49
-0.25
  0
LTYPE
  2
DASHED
 70
    64
  3
__ __ __ __ __ __ __ __ __ __ __ __ __ __ __
 72
    65
 73
     2
 40
0.75
 49
0.5
 49
-0.25
  0
LTYPE
  2
DASHEDX2
 70
    64
  3
____  ____  ____  ____  ____  ____  ____  __
 72
    65
 73
     2
 40
1.5
 49
1.0
 49
-0.5
  0
LTYPE
  2
DOT
 70
    64
  3
............................................
 72
    65
 73
     2
 40
0.25
 49
0
 49
-0.25
  0
LTYPE
  2
DASHDOT
 70
    64
  3
__ . __ . __ . __ . __ . __ . __ . __ . __ .
 72
    65
 73
     4
 40
1.0
 49
0.5
 49
-0.25
 49
0.0
 49
-0.25
  0
LTYPE
  2
CENTER
 70
    64
  3
____ _ ____ _ ____ _ ____ _ ____ _ ____ _ __
 72
    65
 73
     4
 40
2.0
 49
1.25
 49
-0.25
 49
0.25
 49
-0.25
  0
LTYPE
  2
DIVIDE
 70
    64
  3
__ . . __ . . __ . . __ . . __ . . __ . . __
 72
    65
 73
     6
 40
1.25
 49
0.5
 49
-0.25
 49
0.0
 49
-0.25
 49
0.0
 49
-0.25
  0
LTYPE
  2
PHANTOM2
 70
    64
  3
___ _ _ ___ _ _ ___ _ _ ___ _ _ ___ _ _ ___ 
 72
    65
 73
     6
 40
1.25
 49
0.625
 49
-0.125
 49
0.125
 49
-0.125
 49
0.125
 49
-0.125
  0
LTYPE
  2
DOTX2
 70
    64
  3
. . . . . . . . . . . . . . . . . . . . . . 
 72
    65
 73
     2
 40
0.5
 49
0
 49
-0.5
  0
ENDTAB
  0
TABLE
  2
LAYER
 70
   255
  0
LAYER
  2
0
 70
    64
 62
     7
  6
CONTINUOUS
  0
LAYER
  2
1
 70
    64
 62
     7
  6
CONTINUOUS
  0
LAYER
  2
2
 70
    64
 62
     7
  6
CONTINUOUS
  0
LAYER
  2
3
 70
    64
 62
     7
  6
CONTINUOUS
  0
LAYER
  2
4
 70
    64
 62
     7
  6
CONTINUOUS
  0
LAYER
  2
5
 70
    64
 62
     7
  6
CONTINUOUS
  0
LAYER
  2
6
 70
    64
 62
     7
  6
CONTINUOUS
  0
LAYER
  2
7
 70
    64
 62
     7
  6
CONTINUOUS
  0
LAYER
  2
8
 70
    64
 62
     7
  6
CONTINUOUS
  0
LAYER
  2
9
 70
    64
 62
     7
  6
CONTINUOUS
  0
LAYER
  2
10
 70
    64
 62
     7
  6
CONTINUOUS
  0
LAYER
  2
11
 70
    64
 62
     7
  6
CONTINUOUS
  0
LAYER
  2
12
 70
    64
 62
     7
  6
CONTINUOUS
  0
LAYER
  2
13
 70
    64
 62
     7
  6
CONTINUOUS
  0
LAYER
  2
14
 70
    64
 62
     7
  6
CONTINUOUS
  0
LAYER
  2
15
 70
    64
 62
     7
  6
CONTINUOUS
  0
LAYER
  2
16
 70
    64
 62
     7
  6
CONTINUOUS
  0
LAYER
  2
17
 70
    64
 62
     7
  6
CONTINUOUS
  0
LAYER
  2
18
 70
    64
 62
     7
  6
CONTINUOUS
  0
LAYER
  2
19
 70
    64
 62
     7
  6
CONTINUOUS
  0
LAYER
  2
20
 70
    64
 62
     7
  6
CONTINUOUS
  0
LAYER
  2
21
 70
    64
 62
     7
  6
CONTINUOUS
  0
LAYER
  2
22
 70
    64
 62
     7
  6
CONTINUOUS
  0
LAYER
  2
23
 70
    64
 62
     7
  6
CONTINUOUS
  0
LAYER
  2
24
 70
    64
 62
     7
  6
CONTINUOUS
  0
LAYER
  2
25
 70
    64
 62
     7
  6
CONTINUOUS
  0
LAYER
  2
26
 70
    64
 62
     7
  6
CONTINUOUS
  0
LAYER
  2
27
 70
    64
 62
     7
  6
CONTINUOUS
  0
LAYER
  2
28
 70
    64
 62
     7
  6
CONTINUOUS
  0
LAYER
  2
29
 70
    64
 62
     7
  6
CONTINUOUS
  0
LAYER
  2
30
 70
    64
 62
     7
  6
CONTINUOUS
  0
LAYER
  2
31
 70
    64
 62
     7
  6
CONTINUOUS
  0
LAYER
  2
32
 70
    64
 62
     7
  6
CONTINUOUS
  0
LAYER
  2
33
 70
    64
 62
     7
  6
CONTINUOUS
  0
LAYER
  2
34
 70
    64
 62
     7
  6
CONTINUOUS
  0
LAYER
  2
35
 70
    64
 62
     7
  6
CONTINUOUS
  0
LAYER
  2
36
 70
    64
 62
     7
  6
CONTINUOUS
  0
LAYER
  2
37
 70
    64
 62
     7
  6
CONTINUOUS
  0
LAYER
  2
38
 70
    64
 62
     7
  6
CONTINUOUS
  0
LAYER
  2
39
 70
    64
 62
     7
  6
CONTINUOUS
  0
LAYER
  2
40
 70
    64
 62
     7
  6
CONTINUOUS
  0
LAYER
  2
41
 70
    64
 62
     7
  6
CONTINUOUS
  0
LAYER
  2
42
 70
    64
 62
     7
  6
CONTINUOUS
  0
LAYER
  2
43
 70
    64
 62
     7
  6
CONTINUOUS
  0
LAYER
  2
44
 70
    64
 62
     7
  6
CONTINUOUS
  0
LAYER
  2
45
 70
    64
 62
     7
  6
CONTINUOUS
  0
LAYER
  2
46
 70
    64
 62
     7
  6
CONTINUOUS
  0
LAYER
  2
47
 70
    64
 62
     7
  6
CONTINUOUS
  0
LAYER
  2
48
 70
    64
 62
     7
  6
CONTINUOUS
  0
LAYER
  2
49
 70
    64
 62
     7
  6
CONTINUOUS
  0
LAYER
  2
50
 70
    64
 62
     7
  6
CONTINUOUS
  0
LAYER
  2
51
 70
    64
 62
     7
  6
CONTINUOUS
  0
LAYER
  2
52
 70
    64
 62
     7
  6
CONTINUOUS
  0
LAYER
  2
53
 70
    64
 62
     7
  6
CONTINUOUS
  0
LAYER
  2
54
 70
    64
 62
     7
  6
CONTINUOUS
  0
LAYER
  2
55
 70
    64
 62
     7
  6
CONTINUOUS
  0
LAYER
  2
56
 70
    64
 62
     7
  6
CONTINUOUS
  0
LAYER
  2
57
 70
    64
 62
     7
  6
CONTINUOUS
  0
LAYER
  2
58
 70
    64
 62
     7
  6
CONTINUOUS
  0
LAYER
  2
59
 70
    64
 62
     7
  6
CONTINUOUS
  0
LAYER
  2
60
 70
    64
 62
     7
  6
CONTINUOUS
  0
LAYER
  2
61
 70
    64
 62
     7
  6
CONTINUOUS
  0
LAYER
  2
62
 70
    64
 62
     7
  6
CONTINUOUS
  0
LAYER
  2
63
 70
    64
 62
     7
  6
CONTINUOUS
  0
LAYER
  2
64
 70
    64
 62
     7
  6
CONTINUOUS
  0
LAYER
  2
65
 70
    64
 62
     7
  6
CONTINUOUS
  0
LAYER
  2
66
 70
    64
 62
     7
  6
CONTINUOUS
  0
LAYER
  2
67
 70
    64
 62
     7
  6
CONTINUOUS
  0
LAYER
  2
68
 70
    64
 62
     7
  6
CONTINUOUS
  0
LAYER
  2
69
 70
    64
 62
     7
  6
CONTINUOUS
  0
LAYER
  2
70
 70
    64
 62
     7
  6
CONTINUOUS
  0
LAYER
  2
71
 70
    64
 62
     7
  6
CONTINUOUS
  0
LAYER
  2
72
 70
    64
 62
     7
  6
CONTINUOUS
  0
LAYER
  2
73
 70
    64
 62
     7
  6
CONTINUOUS
  0
LAYER
  2
74
 70
    64
 62
     7
  6
CONTINUOUS
  0
LAYER
  2
75
 70
    64
 62
     7
  6
CONTINUOUS
  0
LAYER
  2
76
 70
    64
 62
     7
  6
CONTINUOUS
  0
LAYER
  2
77
 70
    64
 62
     7
  6
CONTINUOUS
  0
LAYER
  2
78
 70
    64
 62
     7
  6
CONTINUOUS
  0
LAYER
  2
79
 70
    64
 62
     7
  6
CONTINUOUS
  0
LAYER
  2
80
 70
    64
 62
     7
  6
CONTINUOUS
  0
LAYER
  2
81
 70
    64
 62
     7
  6
CONTINUOUS
  0
LAYER
  2
82
 70
    64
 62
     7
  6
CONTINUOUS
  0
LAYER
  2
83
 70
    64
 62
     7
  6
CONTINUOUS
  0
LAYER
  2
84
 70
    64
 62
     7
  6
CONTINUOUS
  0
LAYER
  2
85
 70
    64
 62
     7
  6
CONTINUOUS
  0
LAYER
  2
86
 70
    64
 62
     7
  6
CONTINUOUS
  0
LAYER
  2
87
 70
    64
 62
     7
  6
CONTINUOUS
  0
LAYER
  2
88
 70
    64
 62
     7
  6
CONTINUOUS
  0
LAYER
  2
89
 70
    64
 62
     7
  6
CONTINUOUS
  0
LAYER
  2
90
 70
    64
 62
     7
  6
CONTINUOUS
  0
LAYER
  2
91
 70
    64
 62
     7
  6
CONTINUOUS
  0
LAYER
  2
92
 70
    64
 62
     7
  6
CONTINUOUS
  0
LAYER
  2
93
 70
    64
 62
     7
  6
CONTINUOUS
  0
LAYER
  2
94
 70
    64
 62
     7
  6
CONTINUOUS
  0
LAYER
  2
95
 70
    64
 62
     7
  6
CONTINUOUS
  0
LAYER
  2
96
 70
    64
 62
     7
  6
CONTINUOUS
  0
LAYER
  2
97
 70
    64
 62
     7
  6
CONTINUOUS
  0
LAYER
  2
98
 70
    64
 62
     7
  6
CONTINUOUS
  0
LAYER
  2
99
 70
    64
 62
     7
  6
CONTINUOUS
  0
LAYER
  2
100
 70
    64
 62
     7
  6
CONTINUOUS
  0
LAYER
  2
101
 70
    64
 62
     7
  6
CONTINUOUS
  0
LAYER
  2
102
 70
    64
 62
     7
  6
CONTINUOUS
  0
LAYER
  2
103
 70
    64
 62
     7
  6
CONTINUOUS
  0
LAYER
  2
104
 70
    64
 62
     7
  6
CONTINUOUS
  0
LAYER
  2
105
 70
    64
 62
     7
  6
CONTINUOUS
  0
LAYER
  2
106
 70
    64
 62
     7
  6
CONTINUOUS
  0
LAYER
  2
107
 70
    64
 62
     7
  6
CONTINUOUS
  0
LAYER
  2
108
 70
    64
 62
     7
  6
CONTINUOUS
  0
LAYER
  2
109
 70
    64
 62
     7
  6
CONTINUOUS
  0
LAYER
  2
110
 70
    64
 62
     7
  6
CONTINUOUS
  0
LAYER
  2
111
 70
    64
 62
     7
  6
CONTINUOUS
  0
LAYER
  2
112
 70
    64
 62
     7
  6
CONTINUOUS
  0
LAYER
  2
113
 70
    64
 62
     7
  6
CONTINUOUS
  0
LAYER
  2
114
 70
    64
 62
     7
  6
CONTINUOUS
  0
LAYER
  2
115
 70
    64
 62
     7
  6
CONTINUOUS
  0
LAYER
  2
116
 70
    64
 62
     7
  6
CONTINUOUS
  0
LAYER
  2
117
 70
    64
 62
     7
  6
CONTINUOUS
  0
LAYER
  2
118
 70
    64
 62
     7
  6
CONTINUOUS
  0
LAYER
  2
119
 70
    64
 62
     7
  6
CONTINUOUS
  0
LAYER
  2
120
 70
    64
 62
     7
  6
CONTINUOUS
  0
LAYER
  2
121
 70
    64
 62
     7
  6
CONTINUOUS
  0
LAYER
  2
122
 70
    64
 62
     7
  6
CONTINUOUS
  0
LAYER
  2
123
 70
    64
 62
     7
  6
CONTINUOUS
  0
LAYER
  2
124
 70
    64
 62
     7
  6
CONTINUOUS
  0
LAYER
  2
125
 70
    64
 62
     7
  6
CONTINUOUS
  0
LAYER
  2
126
 70
    64
 62
     7
  6
CONTINUOUS
  0
LAYER
  2
127
 70
    64
 62
     7
  6
CONTINUOUS
  0
LAYER
  2
128
 70
    64
 62
     7
  6
CONTINUOUS
  0
LAYER
  2
129
 70
    64
 62
     7
  6
CONTINUOUS
  0
LAYER
  2
130
 70
    64
 62
     7
  6
CONTINUOUS
  0
LAYER
  2
131
 70
    64
 62
     7
  6
CONTINUOUS
  0
LAYER
  2
132
 70
    64
 62
     7
  6
CONTINUOUS
  0
LAYER
  2
133
 70
    64
 62
     7
  6
CONTINUOUS
  0
LAYER
  2
134
 70
    64
 62
     7
  6
CONTINUOUS
  0
LAYER
  2
135
 70
    64
 62
     7
  6
CONTINUOUS
  0
LAYER
  2
136
 70
    64
 62
     7
  6
CONTINUOUS
  0
LAYER
  2
137
 70
    64
 62
     7
  6
CONTINUOUS
  0
LAYER
  2
138
 70
    64
 62
     7
  6
CONTINUOUS
  0
LAYER
  2
139
 70
    64
 62
     7
  6
CONTINUOUS
  0
LAYER
  2
140
 70
    64
 62
     7
  6
CONTINUOUS
  0
LAYER
  2
141
 70
    64
 62
     7
  6
CONTINUOUS
  0
LAYER
  2
142
 70
    64
 62
     7
  6
CONTINUOUS
  0
LAYER
  2
143
 70
    64
 62
     7
  6
CONTINUOUS
  0
LAYER
  2
144
 70
    64
 62
     7
  6
CONTINUOUS
  0
LAYER
  2
145
 70
    64
 62
     7
  6
CONTINUOUS
  0
LAYER
  2
146
 70
    64
 62
     7
  6
CONTINUOUS
  0
LAYER
  2
147
 70
    64
 62
     7
  6
CONTINUOUS
  0
LAYER
  2
148
 70
    64
 62
     7
  6
CONTINUOUS
  0
LAYER
  2
149
 70
    64
 62
     7
  6
CONTINUOUS
  0
LAYER
  2
150
 70
    64
 62
     7
  6
CONTINUOUS
  0
LAYER
  2
151
 70
    64
 62
     7
  6
CONTINUOUS
  0
LAYER
  2
152
 70
    64
 62
     7
  6
CONTINUOUS
  0
LAYER
  2
153
 70
    64
 62
     7
  6
CONTINUOUS
  0
LAYER
  2
154
 70
    64
 62
     7
  6
CONTINUOUS
  0
LAYER
  2
155
 70
    64
 62
     7
  6
CONTINUOUS
  0
LAYER
  2
156
 70
    64
 62
     7
  6
CONTINUOUS
  0
LAYER
  2
157
 70
    64
 62
     7
  6
CONTINUOUS
  0
LAYER
  2
158
 70
    64
 62
     7
  6
CONTINUOUS
  0
LAYER
  2
159
 70
    64
 62
     7
  6
CONTINUOUS
  0
LAYER
  2
160
 70
    64
 62
     7
  6
CONTINUOUS
  0
LAYER
  2
161
 70
    64
 62
     7
  6
CONTINUOUS
  0
LAYER
  2
162
 70
    64
 62
     7
  6
CONTINUOUS
  0
LAYER
  2
163
 70
    64
 62
     7
  6
CONTINUOUS
  0
LAYER
  2
164
 70
    64
 62
     7
  6
CONTINUOUS
  0
LAYER
  2
165
 70
    64
 62
     7
  6
CONTINUOUS
  0
LAYER
  2
166
 70
    64
 62
     7
  6
CONTINUOUS
  0
LAYER
  2
167
 70
    64
 62
     7
  6
CONTINUOUS
  0
LAYER
  2
168
 70
    64
 62
     7
  6
CONTINUOUS
  0
LAYER
  2
169
 70
    64
 62
     7
  6
CONTINUOUS
  0
LAYER
  2
170
 70
    64
 62
     7
  6
CONTINUOUS
  0
LAYER
  2
171
 70
    64
 62
     7
  6
CONTINUOUS
  0
LAYER
  2
172
 70
    64
 62
     7
  6
CONTINUOUS
  0
LAYER
  2
173
 70
    64
 62
     7
  6
CONTINUOUS
  0
LAYER
  2
174
 70
    64
 62
     7
  6
CONTINUOUS
  0
LAYER
  2
175
 70
    64
 62
     7
  6
CONTINUOUS
  0
LAYER
  2
176
 70
    64
 62
     7
  6
CONTINUOUS
  0
LAYER
  2
177
 70
    64
 62
     7
  6
CONTINUOUS
  0
LAYER
  2
178
 70
    64
 62
     7
  6
CONTINUOUS
  0
LAYER
  2
179
 70
    64
 62
     7
  6
CONTINUOUS
  0
LAYER
  2
180
 70
    64
 62
     7
  6
CONTINUOUS
  0
LAYER
  2
181
 70
    64
 62
     7
  6
CONTINUOUS
  0
LAYER
  2
182
 70
    64
 62
     7
  6
CONTINUOUS
  0
LAYER
  2
183
 70
    64
 62
     7
  6
CONTINUOUS
  0
LAYER
  2
184
 70
    64
 62
     7
  6
CONTINUOUS
  0
LAYER
  2
185
 70
    64
 62
     7
  6
CONTINUOUS
  0
LAYER
  2
186
 70
    64
 62
     7
  6
CONTINUOUS
  0
LAYER
  2
187
 70
    64
 62
     7
  6
CONTINUOUS
  0
LAYER
  2
188
 70
    64
 62
     7
  6
CONTINUOUS
  0
LAYER
  2
189
 70
    64
 62
     7
  6
CONTINUOUS
  0
LAYER
  2
190
 70
    64
 62
     7
  6
CONTINUOUS
  0
LAYER
  2
191
 70
    64
 62
     7
  6
CONTINUOUS
  0
LAYER
  2
192
 70
    64
 62
     7
  6
CONTINUOUS
  0
LAYER
  2
193
 70
    64
 62
     7
  6
CONTINUOUS
  0
LAYER
  2
194
 70
    64
 62
     7
  6
CONTINUOUS
  0
LAYER
  2
195
 70
    64
 62
     7
  6
CONTINUOUS
  0
LAYER
  2
196
 70
    64
 62
     7
  6
CONTINUOUS
  0
LAYER
  2
197
 70
    64
 62
     7
  6
CONTINUOUS
  0
LAYER
  2
198
 70
    64
 62
     7
  6
CONTINUOUS
  0
LAYER
  2
199
 70
    64
 62
     7
  6
CONTINUOUS
  0
LAYER
  2
200
 70
    64
 62
     7
  6
CONTINUOUS
  0
LAYER
  2
201
 70
    64
 62
     7
  6
CONTINUOUS
  0
LAYER
  2
202
 70
    64
 62
     7
  6
CONTINUOUS
  0
LAYER
  2
203
 70
    64
 62
     7
  6
CONTINUOUS
  0
LAYER
  2
204
 70
    64
 62
     7
  6
CONTINUOUS
  0
LAYER
  2
205
 70
    64
 62
     7
  6
CONTINUOUS
  0
LAYER
  2
206
 70
    64
 62
     7
  6
CONTINUOUS
  0
LAYER
  2
207
 70
    64
 62
     7
  6
CONTINUOUS
  0
LAYER
  2
208
 70
    64
 62
     7
  6
CONTINUOUS
  0
LAYER
  2
209
 70
    64
 62
     7
  6
CONTINUOUS
  0
LAYER
  2
210
 70
    64
 62
     7
  6
CONTINUOUS
  0
LAYER
  2
211
 70
    64
 62
     7
  6
CONTINUOUS
  0
LAYER
  2
212
 70
    64
 62
     7
  6
CONTINUOUS
  0
LAYER
  2
213
 70
    64
 62
     7
  6
CONTINUOUS
  0
LAYER
  2
214
 70
    64
 62
     7
  6
CONTINUOUS
  0
LAYER
  2
215
 70
    64
 62
     7
  6
CONTINUOUS
  0
LAYER
  2
216
 70
    64
 62
     7
  6
CONTINUOUS
  0
LAYER
  2
217
 70
    64
 62
     7
  6
CONTINUOUS
  0
LAYER
  2
218
 70
    64
 62
     7
  6
CONTINUOUS
  0
LAYER
  2
219
 70
    64
 62
     7
  6
CONTINUOUS
  0
LAYER
  2
220
 70
    64
 62
     7
  6
CONTINUOUS
  0
LAYER
  2
221
 70
    64
 62
     7
  6
CONTINUOUS
  0
LAYER
  2
222
 70
    64
 62
     7
  6
CONTINUOUS
  0
LAYER
  2
223
 70
    64
 62
     7
  6
CONTINUOUS
  0
LAYER
  2
224
 70
    64
 62
     7
  6
CONTINUOUS
  0
LAYER
  2
225
 70
    64
 62
     7
  6
CONTINUOUS
  0
LAYER
  2
226
 70
    64
 62
     7
  6
CONTINUOUS
  0
LAYER
  2
227
 70
    64
 62
     7
  6
CONTINUOUS
  0
LAYER
  2
228
 70
    64
 62
     7
  6
CONTINUOUS
  0
LAYER
  2
229
 70
    64
 62
     7
  6
CONTINUOUS
  0
LAYER
  2
230
 70
    64
 62
     7
  6
CONTINUOUS
  0
LAYER
  2
231
 70
    64
 62
     7
  6
CONTINUOUS
  0
LAYER
  2
232
 70
    64
 62
     7
  6
CONTINUOUS
  0
LAYER
  2
233
 70
    64
 62
     7
  6
CONTINUOUS
  0
LAYER
  2
234
 70
    64
 62
     7
  6
CONTINUOUS
  0
LAYER
  2
235
 70
    64
 62
     7
  6
CONTINUOUS
  0
LAYER
  2
236
 70
    64
 62
     7
  6
CONTINUOUS
  0
LAYER
  2
237
 70
    64
 62
     7
  6
CONTINUOUS
  0
LAYER
  2
238
 70
    64
 62
     7
  6
CONTINUOUS
  0
LAYER
  2
239
 70
    64
 62
     7
  6
CONTINUOUS
  0
LAYER
  2
240
 70
    64
 62
     7
  6
CONTINUOUS
  0
LAYER
  2
241
 70
    64
 62
     7
  6
CONTINUOUS
  0
LAYER
  2
242
 70
    64
 62
     7
  6
CONTINUOUS
  0
LAYER
  2
243
 70
    64
 62
     7
  6
CONTINUOUS
  0
LAYER
  2
244
 70
    64
 62
     7
  6
CONTINUOUS
  0
LAYER
  2
245
 70
    64
 62
     7
  6
CONTINUOUS
  0
LAYER
  2
246
 70
    64
 62
     7
  6
CONTINUOUS
  0
LAYER
  2
247
 70
    64
 62
     7
  6
CONTINUOUS
  0
LAYER
  2
248
 70
    64
 62
     7
  6
CONTINUOUS
  0
LAYER
  2
249
 70
    64
 62
     7
  6
CONTINUOUS
  0
LAYER
  2
250
 70
    64
 62
     7
  6
CONTINUOUS
  0
LAYER
  2
251
 70
    64
 62
     7
  6
CONTINUOUS
  0
LAYER
  2
252
 70
    64
 62
     7
  6
CONTINUOUS
  0
LAYER
  2
253
 70
    64
 62
     7
  6
CONTINUOUS
  0
LAYER
  2
254
 70
    64
 62
     7
  6
CONTINUOUS
  0
LAYER
  2
255
 70
    64
 62
     7
  6
CONTINUOUS
  0
ENDTAB
  0
TABLE
  2
STYLE
 70
     2
  0
STYLE
  2
STANDARD
 70
    64
 40
0.0
 41
1.0
 50
0.0
 71
     0
 42
3.000000
  3
TXT
  4
BIGFONT
  0
ENDTAB
  0
ENDSEC
  0
SECTION
  2
ENTITIES
  0
LINE
  8
0
  6
DASHDOT
 62
     7
 10
-10.537864685058594
 20
 0.0280380249023438
 11
 8.98138427734375
 21
 0.0280380249023438
  0
LINE
  8
0
  6
DASHDOT
 62
     7
 10
 19.061546325683594
 20
 0.0280380249023438
 11
 32.186553955078125
 21
 0.0280380249023438
  0
LINE
  8
0
  6
DASHDOT
 62
     7
 10
 0
 20
 11.105781555175781
 11
 0
 21
-11.105781555175781
  0
CIRCLE
  8
0
  6
CONTINUOUS
 62
     7
 10
 0
 20
 0.0280380249023438
 40
 6
  0
ARC
  8
0
  6
CONTINUOUS
 62
     7
 10
 2.75
 20
 0.0280380249023438
 40
 0.75
 50
-90.000000851989171
 51
 90.000004039712721
  0
LINE
  8
0
  6
CONTINUOUS
 62
     7
 10
 2.75
 20
 0.7780303955078125
 11
 2.1742782592773437
 21
 0.7780303955078125
  0
LINE
  8
0
  6
CONTINUOUS
 62
     7
 10
 2.75
 20
-0.7219696044921875
 11
 2.1742782592773437
 21
-0.7219696044921875
  0
ARC
  8
0
  6
CONTINUOUS
 62
     7
 10
 0
 20
 2.7780303955078125
 40
 0.75
 50
 0.0000035990835772
 51
-179.9999980615126
  0
LINE
  8
0
  6
CONTINUOUS
 62
     7
 10
-0.75
 20
 2.7780303955078125
 11
-0.75
 21
 2.2023162841796875
  0
LINE
  8
0
  6
CONTINUOUS
 62
     7
 10
 0.7499923706054688
 20
 2.7780303955078125
 11
 0.7499923706054688
 21
 2.2023162841796875
  0
ARC
  8
0
  6
CONTINUOUS
 62
     7
 10
-2.75
 20
 0.0280380249023438
 40
 0.75
 50
 90.000010869901999
 51
-90.000000851989171
  0
LINE
  8
0
  6
CONTINUOUS
 62
     7
 10
-2.75
 20
-0.7219696044921875
 11
-2.1742782592773437
 21
-0.7219696044921875
  0
LINE
  8
0
  6
CONTINUOUS
 62
     7
 10
-2.75
 20
 0.7780303955078125
 11
-2.1742782592773437
 21
 0.7780303955078125
  0
ARC
  8
0
  6
CONTINUOUS
 62
     7
 10
 0
 20
-2.7219696044921875
 40
 0.75
 50
-179.9999980615126
 51
 0.0000035990835772
  0
LINE
  8
0
  6
CONTINUOUS
 62
     7
 10
 0.75
 20
-2.7219696044921875
 11
 0.75
 21
-2.146240234375
  0
LINE
  8
0
  6
CONTINUOUS
 62
     7
 10
-0.7499923706054688
 20
-2.7219696044921875
 11
-0.7499923706054688
 21
-2.146240234375
  0
ARC
  8
0
  6
CONTINUOUS
 62
     7
 10
 0
 20
 0.0280380249023438
 40
 2.2999999523162842
 50
 109.03146588275956
 51
 160.96853257600003
  0
ARC
  8
0
  6
CONTINUOUS
 62
     7
 10
 0
 20
 0.0280380249023438
 40
 2.2999999523162842
 50
-160.9687821052801
 51
-109.03123046860028
  0
ARC
  8
0
  6
CONTINUOUS
 62
     7
 10
 0
 20
 0.0280380249023438
 40
 2.2999999523162842
 50
-70.968525348563759
 51
-19.031219598698279
  0
ARC
  8
0
  6
CONTINUOUS
 62
     7
 10
 0
 20
 0.0280380249023438
 40
 2.2999999523162842
 50
 19.031466965688814
 51
 70.968774423101607
  0
LINE
  8
0
  6
CONTINUOUS
 62
     7
 10
 24.424369812011719
 20
 6.0280342102050781
 11
 25.224365234375
 21
 6.0280342102050781
  0
LINE
  8
0
  6
CONTINUOUS
 62
     7
 10
 25.224365234375
 20
 6.0280342102050781
 11
 25.224365234375
 21
-5.97198486328125
  0
LINE
  8
0
  6
CONTINUOUS
 62
     7
 10
 25.224365234375
 20
-5.97198486328125
 11
 24.424369812011719
 21
-5.97198486328125
  0
LINE
  8
0
  6
CONTINUOUS
 62
     7
 10
 24.424369812011719
 20
-5.97198486328125
 11
 24.424369812011719
 21
 6.0280342102050781
  0
LINE
  8
0
  6
CONTINUOUS
 62
     7
 10
 24.424369812011719
 20
 8.2732429504394531
 11
 24.424369812011719
 21
 18.880668640136719
  0
LINE
  8
0
  6
CONTINUOUS
 62
     7
 10
 25.224365234375
 20
 8.2732429504394531
 11
 25.224365234375
 21
 18.880668640136719
  0
LINE
  8
0
  6
CONTINUOUS
 62
     7
 10
 16.744369506835938
 20
 17.920669555664063
 11
 24.424369812011719
 21
 17.920669555664063
  0
LINE
  8
0
  6
CONTINUOUS
 62
     7
 10
 24.424369812011719
 20
 17.920669555664063
 11
 21.526592333144514
 21
 18.697126690971626
  0
LINE
  8
0
  6
CONTINUOUS
 62
     7
 10
 24.424369812011719
 20
 17.920669555664063
 11
 21.526592333144514
 21
 17.144212420356499
  0
LINE
  8
0
  6
CONTINUOUS
 62
     7
 10
 24.424369812011719
 20
 17.920669555664063
 11
 25.224365234375
 21
 17.920669555664063
  0
TEXT
  8
0
  6
CONTINUOUS
 62
     7
 10
 26.824366760253906
 20
 18.880668640136719
 11
 32.624366760253906
 21
 18.880668640136719
 40
 2
 41
 0.8
  1
０．８
 50
 0
 72
  5
  0
LINE
  8
0
  6
CONTINUOUS
 62
     7
 10
 34.224361419677734
 20
 17.920669555664063
 11
 25.224365234375
 21
 17.920669555664063
  0
LINE
  8
0
  6
CONTINUOUS
 62
     7
 10
 25.224365234375
 20
 17.920669555664063
 11
 28.122142713242205
 21
 17.144212420356499
  0
LINE
  8
0
  6
CONTINUOUS
 62
     7
 10
 25.224365234375
 20
 17.920669555664063
 11
 28.122142713242205
 21
 18.697126690971626
  0
LINE
  8
0
  6
CONTINUOUS
 62
     3
 10
-90.82056455996802
 20
 1.240987651559351
 11
-132.68597441104225
 21
 22.173677318307398
  0
LINE
  8
0
  6
CONTINUOUS
 62
     3
 10
-133.29824858096413
 20
 24.572542064401148
 11
-123.36196165469458
 21
 29.540685527535913
  0
LINE
  8
0
  6
CONTINUOUS
 62
     3
 10
-121.24886351016333
 20
 26.034646861764429
 11
-121.24886351016333
 21
 27.020089976998804
  0
LINE
  8
254
  6
CONTINUOUS
 62
     3
 10
-134.71965055850319
 20
 24.888917796823023
 11
-123.48491697696021
 21
 30.506276958199976
  0
LINE
  8
254
  6
CONTINUOUS
 62
     3
 10
-84.47095518496802
 20
 13.235353343698023
 11
-85.498794845612551
 21
 13.749265544625757
  0
LINE
  8
254
  6
CONTINUOUS
 62
     3
 10
-86.198517135651613
 20
 14.099130504342554
 11
-119.01277952578833
 21
 30.506276958199976
  0
ARC
  8
254
  6
CONTINUOUS
 62
     3
 10
-121.24884825137427
 20
 26.034139507028101
 40
 5
 50
 63.434952696659344
 51
 116.56503489219823
  0
LINE
  8
254
  6
CONTINUOUS
 62
     3
 10
-86.668937973053957
 20
 8.7446688344206791
 11
-87.736938766510988
 21
 9.2786806752409916
  0
LINE
  8
254
  6
CONTINUOUS
 62
     3
 10
-88.434372238190676
 20
 9.6273897816863041
 11
-121.24884825137427
 21
 26.034646861764429
  0
LINE
  8
254
  6
CONTINUOUS
 62
     3
 10
-121.24884825137427
 20
 26.034646861764429
 11
-129.80128507998757
 21
 21.758420818063257
  0
LINE
  8
254
  6
CONTINUOUS
 62
     3
 10
-130.82835417178444
 20
 22.271955363961695
 11
-88.351135543854738
 21
 1.033346049996851
  0
LINE
  8
254
  6
CONTINUOUS
 62
     3
 10
-90.623459152253176
 20
-3.4201527903351803
 11
-134.71965055850319
 21
 18.627927654000757
  0
ARC
  8
254
  6
CONTINUOUS
 62
     3
 10
-133.15440397647194
 20
 21.758424632760523
 40
 3.5
 50
 116.56503489219823
 51
-116.56506585542114
  0
LINE
  8
0
  6
CONTINUOUS
 62
     3
 10
-88.338379196198488
 20
 14.05790888569021
 11
-119.38968687442114
 21
 29.583555095407007
  0
LINE
  8
254
  6
CONTINUOUS
 62
     2
 10
-85.464325241120363
 20
 13.732053630563257
 11
-85.58667784121802
 21
 13.785859935494898
  0
LINE
  8
254
  6
CONTINUOUS
 62
     2
 10
-85.58667784121802
 20
 13.785859935494898
 11
-85.716736129792238
 21
 13.82231318256521
  0
LINE
  8
254
  6
CONTINUOUS
 62
     2
 10
-85.716736129792238
 20
 13.82231318256521
 11
-85.85352354434302
 21
 13.841127269479273
  0
LINE
  8
254
  6
CONTINUOUS
 62
     2
 10
-85.85352354434302
 20
 13.841127269479273
 11
-85.996017746003176
 21
 13.842180125924585
  0
LINE
  8
254
  6
CONTINUOUS
 62
     2
 10
-85.996017746003176
 20
 13.842180125924585
 11
-86.143097213776613
 21
 13.82542597553396
  0
LINE
  8
254
  6
CONTINUOUS
 62
     2
 10
-86.143097213776613
 20
 13.82542597553396
 11
-86.293663314850832
 21
 13.791025035592554
  0
LINE
  8
254
  6
CONTINUOUS
 62
     2
 10
-86.293663314850832
 20
 13.791025035592554
 11
-86.446556381257082
 21
 13.739229076119898
  0
LINE
  8
254
  6
CONTINUOUS
 62
     2
 10
-86.446556381257082
 20
 13.739229076119898
 11
-86.600624374421145
 21
 13.670438640328882
  0
LINE
  8
254
  6
CONTINUOUS
 62
     2
 10
-86.600624374421145
 20
 13.670438640328882
 11
-86.754692367585207
 21
 13.585153453561304
  0
LINE
  8
254
  6
CONTINUOUS
 62
     2
 10
-86.754692367585207
 20
 13.585153453561304
 11
-86.907585433991457
 21
 13.484063976022242
  0
LINE
  8
254
  6
CONTINUOUS
 62
     2
 10
-86.907585433991457
 20
 13.484063976022242
 11
-87.058151535065676
 21
 13.367898814889429
  0
LINE
  8
254
  6
CONTINUOUS
 62
     2
 10
-87.058151535065676
 20
 13.367898814889429
 11
-87.205231002839113
 21
 13.237558238717554
  0
LINE
  8
254
  6
CONTINUOUS
 62
     2
 10
-87.205231002839113
 20
 13.237558238717554
 11
-87.347709945710207
 21
 13.09404169819021
  0
LINE
  8
254
  6
CONTINUOUS
 62
     2
 10
-87.347709945710207
 20
 13.09404169819021
 11
-87.484512619050051
 21
 12.938424937936304
  0
LINE
  8
254
  6
CONTINUOUS
 62
     2
 10
-87.484512619050051
 20
 12.938424937936304
 11
-87.61457090762427
 21
 12.771917216989038
  0
LINE
  8
254
  6
CONTINUOUS
 62
     2
 10
-87.61457090762427
 20
 12.771917216989038
 11
-87.736923507721926
 21
 12.595765941354273
  0
LINE
  8
254
  6
CONTINUOUS
 62
     2
 10
-87.736923507721926
 20
 12.595765941354273
 11
-87.850624374421145
 21
 12.411310069772242
  0
LINE
  8
254
  6
CONTINUOUS
 62
     2
 10
-87.850624374421145
 20
 12.411310069772242
 11
-87.954803756745363
 21
 12.219949596139429
  0
LINE
  8
254
  6
CONTINUOUS
 62
     2
 10
-87.954803756745363
 20
 12.219949596139429
 11
-88.048691085846926
 21
 12.023160808297632
  0
LINE
  8
254
  6
CONTINUOUS
 62
     2
 10
-88.048691085846926
 20
 12.023160808297632
 11
-88.131561569245363
 21
 11.822442882272242
  0
LINE
  8
254
  6
CONTINUOUS
 62
     2
 10
-88.131561569245363
 20
 11.822442882272242
 11
-88.202774337800051
 21
 11.619287364694117
  0
LINE
  8
254
  6
CONTINUOUS
 62
     2
 10
-88.202774337800051
 20
 11.619287364694117
 11
-88.261780075104738
 21
 11.415284984323023
  0
LINE
  8
254
  6
CONTINUOUS
 62
     2
 10
-88.261780075104738
 20
 11.415284984323023
 11
-88.308159164460207
 21
 11.21196162006521
  0
LINE
  8
254
  6
CONTINUOUS
 62
     2
 10
-88.308159164460207
 20
 11.21196162006521
 11
-88.341530136139895
 21
 11.010869853707788
  0
LINE
  8
254
  6
CONTINUOUS
 62
     2
 10
-88.341530136139895
 20
 11.010869853707788
 11
-88.361671737702395
 21
 10.813547008248804
  0
LINE
  8
254
  6
CONTINUOUS
 62
     2
 10
-88.361671737702395
 20
 10.813547008248804
 11
-88.368400863678957
 21
 10.621492259713648
  0
LINE
  8
254
  6
CONTINUOUS
 62
     2
 10
-88.368400863678957
 20
 10.621492259713648
 11
-88.361671737702395
 21
 10.436151378365992
  0
LINE
  8
254
  6
CONTINUOUS
 62
     2
 10
-88.361671737702395
 20
 10.436151378365992
 11
-88.341530136139895
 21
 10.258951060983179
  0
LINE
  8
254
  6
CONTINUOUS
 62
     2
 10
-88.341530136139895
 20
 10.258951060983179
 11
-88.308159164460207
 21
 10.091249339791773
  0
LINE
  8
254
  6
CONTINUOUS
 62
     2
 10
-88.308159164460207
 20
 10.091249339791773
 11
-88.261780075104738
 21
 9.9342898061003666
  0
LINE
  8
254
  6
CONTINUOUS
 62
     2
 10
-88.261780075104738
 20
 9.9342898061003666
 11
-88.202774337800051
 21
 9.7893122365202885
  0
LINE
  8
254
  6
CONTINUOUS
 62
     2
 10
-88.202774337800051
 20
 9.7893122365202885
 11
-88.131561569245363
 21
 9.6573809315886479
  0
LINE
  8
254
  6
CONTINUOUS
 62
     2
 10
-88.131561569245363
 20
 9.6573809315886479
 11
-88.048691085846926
 21
 9.5395144154753666
  0
LINE
  8
254
  6
CONTINUOUS
 62
     2
 10
-88.048691085846926
 20
 9.5395144154753666
 11
-87.954803756745363
 21
 9.4366015126433354
  0
LINE
  8
254
  6
CONTINUOUS
 62
     2
 10
-87.954803756745363
 20
 9.4366015126433354
 11
-87.850624374421145
 21
 9.3494433095183354
  0
LINE
  8
254
  6
CONTINUOUS
 62
     2
 10
-87.850624374421145
 20
 9.3494433095183354
 11
-87.736923507721926
 21
 9.2786806752409916
  0
LINE
  8
254
  6
CONTINUOUS
 62
     2
 10
-87.66126280215552
 20
-0.692209369925024
 11
-87.666649154694582
 21
-0.5439320872101803
  0
LINE
  8
254
  6
CONTINUOUS
 62
     2
 10
-87.666649154694582
 20
-0.5439320872101803
 11
-87.68274717715552
 21
-0.4021855662140865
  0
LINE
  8
254
  6
CONTINUOUS
 62
     2
 10
-87.68274717715552
 20
-0.4021855662140865
 11
-87.709442428620363
 21
-0.268015033987524
  0
LINE
  8
254
  6
CONTINUOUS
 62
     2
 10
-87.709442428620363
 20
-0.268015033987524
 11
-87.746551803620363
 21
-0.1424580881867428
  0
LINE
  8
254
  6
CONTINUOUS
 62
     2
 10
-87.746551803620363
 20
-0.1424580881867428
 11
-87.793754867585207
 21
-0.0264607737336178
  0
LINE
  8
254
  6
CONTINUOUS
 62
     2
 10
-87.793754867585207
 20
-0.0264607737336178
 11
-87.850731185944582
 21
 0.0790804555144291
  0
LINE
  8
254
  6
CONTINUOUS
 62
     2
 10
-87.850731185944582
 20
 0.0790804555144291
 11
-87.917022995026613
 21
 0.1733759572234135
  0
LINE
  8
254
  6
CONTINUOUS
 62
     2
 10
-87.917022995026613
 20
 0.1733759572234135
 11
-87.99213438418677
 21
 0.2557009389128666
  0
LINE
  8
254
  6
CONTINUOUS
 62
     2
 10
-87.99213438418677
 20
 0.2557009389128666
 11
-88.075485519440676
 21
 0.325429790231226
  0
LINE
  8
254
  6
CONTINUOUS
 62
     2
 10
-88.075485519440676
 20
 0.325429790231226
 11
-88.166435531647707
 21
 0.3820322682585697
  0
LINE
  8
254
  6
CONTINUOUS
 62
     2
 10
-88.166435531647707
 20
 0.3820322682585697
 11
-88.264320663483645
 21
 0.4250734975066166
  0
LINE
  8
254
  6
CONTINUOUS
 62
     2
 10
-88.264320663483645
 20
 0.4250734975066166
 11
-88.368370346100832
 21
 0.4542330434050541
  0
LINE
  8
254
  6
CONTINUOUS
 62
     2
 10
-88.368370346100832
 20
 0.4542330434050541
 11
-88.477806381257082
 21
 0.4692934682097416
  0
LINE
  8
254
  6
CONTINUOUS
 62
     2
 10
-88.477806381257082
 20
 0.4692934682097416
 11
-88.591789535553957
 21
 0.4701250722136479
  0
LINE
  8
254
  6
CONTINUOUS
 62
     2
 10
-88.591789535553957
 20
 0.4701250722136479
 11
-88.709457687409426
 21
 0.456716411324976
  0
LINE
  8
254
  6
CONTINUOUS
 62
     2
 10
-88.709457687409426
 20
 0.456716411324976
 11
-88.82990293887427
 21
 0.4291971852507572
  0
LINE
  8
254
  6
CONTINUOUS
 62
     2
 10
-88.82990293887427
 20
 0.4291971852507572
 11
-88.95221739199927
 21
 0.3877733876433354
  0
LINE
  8
254
  6
CONTINUOUS
 62
     2
 10
-88.95221739199927
 20
 0.3877733876433354
 11
-89.075485519440676
 21
 0.3327349354948979
  0
LINE
  8
254
  6
CONTINUOUS
 62
     2
 10
-89.075485519440676
 20
 0.3327349354948979
 11
-89.198730758698488
 21
 0.2645205189909916
  0
LINE
  8
254
  6
CONTINUOUS
 62
     2
 10
-89.198730758698488
 20
 0.2645205189909916
 11
-89.32105284121802
 21
 0.1836298634734135
  0
LINE
  8
254
  6
CONTINUOUS
 62
     2
 10
-89.32105284121802
 20
 0.1836298634734135
 11
-89.441505722077395
 21
 0.0907038380827885
  0
LINE
  8
254
  6
CONTINUOUS
 62
     2
 10
-89.441505722077395
 20
 0.0907038380827885
 11
-89.559173873932863
 21
-0.0135632822785396
  0
LINE
  8
254
  6
CONTINUOUS
 62
     2
 10
-89.559173873932863
 20
-0.0135632822785396
 11
-89.673141769440676
 21
-0.1283818552765865
  0
LINE
  8
254
  6
CONTINUOUS
 62
     2
 10
-89.673141769440676
 20
-0.1283818552765865
 11
-89.782593063385988
 21
-0.2528668711457272
  0
LINE
  8
254
  6
CONTINUOUS
 62
     2
 10
-89.782593063385988
 20
-0.2528668711457272
 11
-89.886627487214113
 21
-0.386087543753149
  0
LINE
  8
254
  6
CONTINUOUS
 62
     2
 10
-89.886627487214113
 20
-0.386087543753149
 11
-89.984520248444582
 21
-0.527017719534399
  0
LINE
  8
254
  6
CONTINUOUS
 62
     2
 10
-89.984520248444582
 20
-0.527017719534399
 11
-90.075477890046145
 21
-0.674570209768774
  0
LINE
  8
254
  6
CONTINUOUS
 62
     2
 10
-90.075477890046145
 20
-0.674570209768774
 11
-90.158836654694582
 21
-0.827646381643774
  0
LINE
  8
254
  6
CONTINUOUS
 62
     2
 10
-90.158836654694582
 20
-0.827646381643774
 11
-90.233932785065676
 21
-0.985086567190649
  0
LINE
  8
254
  6
CONTINUOUS
 62
     2
 10
-90.233932785065676
 20
-0.985086567190649
 11
-90.300224594147707
 21
-1.1456624338898678
  0
LINE
  8
254
  6
CONTINUOUS
 62
     2
 10
-90.300224594147707
 20
-1.1456624338898678
 11
-90.357193283112551
 21
-1.3081685374054928
  0
LINE
  8
254
  6
CONTINUOUS
 62
     2
 10
-90.357193283112551
 20
-1.3081685374054928
 11
-90.404403976471926
 21
-1.4713918040070553
  0
LINE
  8
254
  6
CONTINUOUS
 62
     2
 10
-90.404403976471926
 20
-1.4713918040070553
 11
-90.441505722077395
 21
-1.634042866018774
  0
LINE
  8
254
  6
CONTINUOUS
 62
     2
 10
-90.441505722077395
 20
-1.634042866018774
 11
-90.46820860293677
 21
-1.7949086497101803
  0
LINE
  8
254
  6
CONTINUOUS
 62
     2
 10
-90.46820860293677
 20
-1.7949086497101803
 11
-90.484306625397707
 21
-1.952768451956274
  0
LINE
  8
254
  6
CONTINUOUS
 62
     2
 10
-90.484306625397707
 20
-1.952768451956274
 11
-90.489685348542238
 21
-2.106424457815649
  0
LINE
  8
254
  6
CONTINUOUS
 62
     2
 10
-90.489685348542238
 20
-2.106424457815649
 11
-90.484306625397707
 21
-2.2546941111359615
  0
LINE
  8
254
  6
CONTINUOUS
 62
     2
 10
-90.484306625397707
 20
-2.2546941111359615
 11
-90.46820860293677
 21
-2.3964406321320553
  0
LINE
  8
254
  6
CONTINUOUS
 62
     2
 10
-90.46820860293677
 20
-2.3964406321320553
 11
-90.441498092682863
 21
-2.530618793753149
  0
LINE
  8
254
  6
CONTINUOUS
 62
     2
 10
-90.441498092682863
 20
-2.530618793753149
 11
-90.404403976471926
 21
-2.6561757395539303
  0
LINE
  8
254
  6
CONTINUOUS
 62
     2
 10
-90.404403976471926
 20
-2.6561757395539303
 11
-90.35718565371802
 21
-2.7721577952179928
  0
LINE
  8
254
  6
CONTINUOUS
 62
     2
 10
-90.35718565371802
 20
-2.7721577952179928
 11
-90.300224594147707
 21
-2.877725727346899
  0
LINE
  8
254
  6
CONTINUOUS
 62
     2
 10
-90.300224594147707
 20
-2.877725727346899
 11
-90.233932785065676
 21
-2.9720097849640865
  0
LINE
  8
254
  6
CONTINUOUS
 62
     2
 10
-90.233932785065676
 20
-2.9720097849640865
 11
-90.158836654694582
 21
-3.0543385813508053
  0
LINE
  8
254
  6
CONTINUOUS
 62
     2
 10
-90.158836654694582
 20
-3.0543385813508053
 11
-90.075477890046145
 21
-3.124063617971899
  0
LINE
  8
254
  6
CONTINUOUS
 62
     2
 10
-90.075477890046145
 20
-3.124063617971899
 11
-89.984520248444582
 21
-3.180673725393774
  0
LINE
  8
254
  6
CONTINUOUS
 62
     2
 10
-89.984520248444582
 20
-3.180673725393774
 11
-89.886627487214113
 21
-3.2237187693390865
  0
LINE
  8
254
  6
CONTINUOUS
 62
     2
 10
-89.886627487214113
 20
-3.2237187693390865
 11
-89.782593063385988
 21
-3.252878315237524
  0
LINE
  8
254
  6
CONTINUOUS
 62
     2
 10
-89.782593063385988
 20
-3.252878315237524
 11
-89.673141769440676
 21
-3.267923481253149
  0
LINE
  8
254
  6
CONTINUOUS
 62
     2
 10
-89.673141769440676
 20
-3.267923481253149
 11
-89.559173873932863
 21
-3.2687550852570553
  0
LINE
  8
254
  6
CONTINUOUS
 62
     2
 10
-89.559173873932863
 20
-3.2687550852570553
 11
-89.441498092682863
 21
-3.2553654978547115
  0
LINE
  8
254
  6
CONTINUOUS
 62
     2
 10
-89.441498092682863
 20
-3.2553654978547115
 11
-89.32105284121802
 21
-3.2278462717804928
  0
LINE
  8
254
  6
CONTINUOUS
 62
     2
 10
-89.32105284121802
 20
-3.2278462717804928
 11
-89.198730758698488
 21
-3.1864034006867428
  0
LINE
  8
254
  6
CONTINUOUS
 62
     2
 10
-89.198730758698488
 20
-3.1864034006867428
 11
-89.075485519440676
 21
-3.1313649485383053
  0
LINE
  8
254
  6
CONTINUOUS
 62
     2
 10
-89.075485519440676
 20
-3.1313649485383053
 11
-88.95221739199927
 21
-3.063150532034399
  0
LINE
  8
254
  6
CONTINUOUS
 62
     2
 10
-88.95221739199927
 20
-3.063150532034399
 11
-88.82990293887427
 21
-2.9822636912140865
  0
LINE
  8
254
  6
CONTINUOUS
 62
     2
 10
-88.82990293887427
 20
-2.9822636912140865
 11
-88.709457687409426
 21
-2.8893376658234615
  0
LINE
  8
254
  6
CONTINUOUS
 62
     2
 10
-88.709457687409426
 20
-2.8893376658234615
 11
-88.591789535553957
 21
-2.7850819895539303
  0
LINE
  8
254
  6
CONTINUOUS
 62
     2
 10
-88.591789535553957
 20
-2.7850819895539303
 11
-88.477806381257082
 21
-2.6702519724640865
  0
LINE
  8
254
  6
CONTINUOUS
 62
     2
 10
-88.477806381257082
 20
-2.6702519724640865
 11
-88.368370346100832
 21
-2.5457631418976803
  0
LINE
  8
254
  6
CONTINUOUS
 62
     2
 10
-88.368370346100832
 20
-2.5457631418976803
 11
-88.264305404694582
 21
-2.4125539133820553
  0
LINE
  8
254
  6
CONTINUOUS
 62
     2
 10
-88.264305404694582
 20
-2.4125539133820553
 11
-88.166435531647707
 21
-2.2716313669953365
  0
LINE
  8
254
  6
CONTINUOUS
 62
     2
 10
-88.166435531647707
 20
-2.2716313669953365
 11
-88.075485519440676
 21
-2.124063617971899
  0
LINE
  8
254
  6
CONTINUOUS
 62
     2
 10
-88.075485519440676
 20
-2.124063617971899
 11
-87.99213438418677
 21
-1.970987446096899
  0
LINE
  8
254
  6
CONTINUOUS
 62
     2
 10
-87.99213438418677
 20
-1.970987446096899
 11
-87.917022995026613
 21
-1.8135625193390865
  0
LINE
  8
254
  6
CONTINUOUS
 62
     2
 10
-87.917022995026613
 20
-1.8135625193390865
 11
-87.850731185944582
 21
-1.6529713938508053
  0
LINE
  8
254
  6
CONTINUOUS
 62
     2
 10
-87.850731185944582
 20
-1.6529713938508053
 11
-87.793754867585207
 21
-1.490457660940649
  0
LINE
  8
254
  6
CONTINUOUS
 62
     2
 10
-87.793754867585207
 20
-1.490457660940649
 11
-87.746551803620363
 21
-1.3272420237336178
  0
LINE
  8
254
  6
CONTINUOUS
 62
     2
 10
-87.746551803620363
 20
-1.3272420237336178
 11
-87.709442428620363
 21
-1.1646062205109615
  0
LINE
  8
254
  6
CONTINUOUS
 62
     2
 10
-87.709442428620363
 20
-1.1646062205109615
 11
-87.68274717715552
 21
-1.0037175486359615
  0
LINE
  8
254
  6
CONTINUOUS
 62
     2
 10
-87.68274717715552
 20
-1.0037175486359615
 11
-87.666649154694582
 21
-0.8458577463898678
  0
LINE
  8
254
  6
CONTINUOUS
 62
     2
 10
-87.666649154694582
 20
-0.8458577463898678
 11
-87.66126280215552
 21
-0.692209369925024
  0
LINE
  8
254
  6
CONTINUOUS
 62
     2
 10
-83.772201828034426
 20
 11.505380504342554
 11
-83.777580551178957
 21
 11.65363871357107
  0
LINE
  8
254
  6
CONTINUOUS
 62
     2
 10
-83.777580551178957
 20
 11.65363871357107
 11
-83.793678573639895
 21
 11.79539667865896
  0
LINE
  8
254
  6
CONTINUOUS
 62
     2
 10
-83.793678573639895
 20
 11.79539667865896
 11
-83.820396713288332
 21
 11.929555766793726
  0
LINE
  8
254
  6
CONTINUOUS
 62
     2
 10
-83.820396713288332
 20
 11.929555766793726
 11
-83.857483200104738
 21
 12.05512797138357
  0
LINE
  8
254
  6
CONTINUOUS
 62
     2
 10
-83.857483200104738
 20
 12.05512797138357
 11
-83.904709152253176
 21
 12.171125285836695
  0
LINE
  8
254
  6
CONTINUOUS
 62
     2
 10
-83.904709152253176
 20
 12.171125285836695
 11
-83.961670211823488
 21
 12.276666515084742
  0
LINE
  8
254
  6
CONTINUOUS
 62
     2
 10
-83.961670211823488
 20
 12.276666515084742
 11
-84.027954391510988
 21
 12.370950572701929
  0
LINE
  8
254
  6
CONTINUOUS
 62
     2
 10
-84.027954391510988
 20
 12.370950572701929
 11
-84.103065780671145
 21
 12.453286998483179
  0
LINE
  8
254
  6
CONTINUOUS
 62
     2
 10
-84.103065780671145
 20
 12.453286998483179
 11
-84.186416915925051
 21
 12.523000591012476
  0
LINE
  8
254
  6
CONTINUOUS
 62
     2
 10
-84.186416915925051
 20
 12.523000591012476
 11
-84.277374557526613
 21
 12.579618327828882
  0
LINE
  8
254
  6
CONTINUOUS
 62
     2
 10
-84.277374557526613
 20
 12.579618327828882
 11
-84.375259689362551
 21
 12.622655742379663
  0
LINE
  8
254
  6
CONTINUOUS
 62
     2
 10
-84.375259689362551
 20
 12.622655742379663
 11
-84.479309371979738
 21
 12.651815288278101
  0
LINE
  8
254
  6
CONTINUOUS
 62
     2
 10
-84.479309371979738
 20
 12.651815288278101
 11
-84.588745407135988
 21
 12.666875713082788
  0
LINE
  8
254
  6
CONTINUOUS
 62
     2
 10
-84.588745407135988
 20
 12.666875713082788
 11
-84.702728561432863
 21
 12.66771113178396
  0
LINE
  8
254
  6
CONTINUOUS
 62
     2
 10
-84.702728561432863
 20
 12.66771113178396
 11
-84.820389083893801
 21
 12.654317729684351
  0
LINE
  8
254
  6
CONTINUOUS
 62
     2
 10
-84.820389083893801
 20
 12.654317729684351
 11
-84.940834335358645
 21
 12.62678324482107
  0
LINE
  8
254
  6
CONTINUOUS
 62
     2
 10
-84.940834335358645
 20
 12.62678324482107
 11
-85.063156417878176
 21
 12.585359447213648
  0
LINE
  8
254
  6
CONTINUOUS
 62
     2
 10
-85.063156417878176
 20
 12.585359447213648
 11
-85.186416915925051
 21
 12.53032099506521
  0
LINE
  8
254
  6
CONTINUOUS
 62
     2
 10
-85.186416915925051
 20
 12.53032099506521
 11
-85.309669784577395
 21
 12.462106578561304
  0
LINE
  8
254
  6
CONTINUOUS
 62
     2
 10
-85.309669784577395
 20
 12.462106578561304
 11
-85.431984237702395
 21
 12.381215923043726
  0
LINE
  8
254
  6
CONTINUOUS
 62
     2
 10
-85.431984237702395
 20
 12.381215923043726
 11
-85.552429489167238
 21
 12.288278453561304
  0
LINE
  8
254
  6
CONTINUOUS
 62
     2
 10
-85.552429489167238
 20
 12.288278453561304
 11
-85.670105270417238
 21
 12.184018962594507
  0
LINE
  8
254
  6
CONTINUOUS
 62
     2
 10
-85.670105270417238
 20
 12.184018962594507
 11
-85.784096054108645
 21
 12.069204204293726
  0
LINE
  8
254
  6
CONTINUOUS
 62
     2
 10
-85.784096054108645
 20
 12.069204204293726
 11
-85.893524459870363
 21
 11.944719188424585
  0
LINE
  8
254
  6
CONTINUOUS
 62
     2
 10
-85.893524459870363
 20
 11.944719188424585
 11
-85.997581771882082
 21
 11.81150995990896
  0
LINE
  8
254
  6
CONTINUOUS
 62
     2
 10
-85.997581771882082
 20
 11.81150995990896
 11
-86.095451644928957
 21
 11.670583598824976
  0
LINE
  8
254
  6
CONTINUOUS
 62
     2
 10
-86.095451644928957
 20
 11.670583598824976
 11
-86.186416915925051
 21
 11.523004405709742
  0
LINE
  8
254
  6
CONTINUOUS
 62
     2
 10
-86.186416915925051
 20
 11.523004405709742
 11
-86.269768051178957
 21
 11.369935863229273
  0
LINE
  8
254
  6
CONTINUOUS
 62
     2
 10
-86.269768051178957
 20
 11.369935863229273
 11
-86.344864181550051
 21
 11.212503307076929
  0
LINE
  8
254
  6
CONTINUOUS
 62
     2
 10
-86.344864181550051
 20
 11.212503307076929
 11
-86.411155990632082
 21
 11.051923625680445
  0
LINE
  8
254
  6
CONTINUOUS
 62
     2
 10
-86.411155990632082
 20
 11.051923625680445
 11
-86.468117050202395
 21
 10.889413707467554
  0
LINE
  8
254
  6
CONTINUOUS
 62
     2
 10
-86.468117050202395
 20
 10.889413707467554
 11
-86.515335372956301
 21
 10.726198070260523
  0
LINE
  8
254
  6
CONTINUOUS
 62
     2
 10
-86.515335372956301
 20
 10.726198070260523
 11
-86.552429489167238
 21
 10.563543193551538
  0
LINE
  8
254
  6
CONTINUOUS
 62
     2
 10
-86.552429489167238
 20
 10.563543193551538
 11
-86.579139999421145
 21
 10.402673595162867
  0
LINE
  8
254
  6
CONTINUOUS
 62
     2
 10
-86.579139999421145
 20
 10.402673595162867
 11
-86.595238021882082
 21
 10.244813792916773
  0
LINE
  8
254
  6
CONTINUOUS
 62
     2
 10
-86.595238021882082
 20
 10.244813792916773
 11
-86.600624374421145
 21
 10.091161601754663
  0
LINE
  8
254
  6
CONTINUOUS
 62
     2
 10
-86.600624374421145
 20
 10.091161601754663
 11
-86.595238021882082
 21
 9.9428881337370854
  0
LINE
  8
254
  6
CONTINUOUS
 62
     2
 10
-86.595238021882082
 20
 9.9428881337370854
 11
-86.579139999421145
 21
 9.8011416127409916
  0
LINE
  8
254
  6
CONTINUOUS
 62
     2
 10
-86.579139999421145
 20
 9.8011416127409916
 11
-86.552429489167238
 21
 9.6669672658171635
  0
LINE
  8
254
  6
CONTINUOUS
 62
     2
 10
-86.552429489167238
 20
 9.6669672658171635
 11
-86.515335372956301
 21
 9.5413950612273197
  0
LINE
  8
254
  6
CONTINUOUS
 62
     2
 10
-86.515335372956301
 20
 9.5413950612273197
 11
-86.468117050202395
 21
 9.4254130055632572
  0
LINE
  8
254
  6
CONTINUOUS
 62
     2
 10
-86.468117050202395
 20
 9.4254130055632572
 11
-86.411155990632082
 21
 9.319875591012476
  0
LINE
  8
254
  6
CONTINUOUS
 62
     2
 10
-86.411155990632082
 20
 9.319875591012476
 11
-86.344864181550051
 21
 9.225576274606226
  0
LINE
  8
254
  6
CONTINUOUS
 62
     2
 10
-86.344864181550051
 20
 9.225576274606226
 11
-86.269760421784426
 21
 9.1432512929167729
  0
LINE
  8
254
  6
CONTINUOUS
 62
     2
 10
-86.269760421784426
 20
 9.1432512929167729
 11
-86.186416915925051
 21
 9.0735224415984135
  0
LINE
  8
254
  6
CONTINUOUS
 62
     2
 10
-86.186416915925051
 20
 9.0735224415984135
 11
-86.095451644928957
 21
 9.0169237782683354
  0
LINE
  8
254
  6
CONTINUOUS
 62
     2
 10
-86.095451644928957
 20
 9.0169237782683354
 11
-85.997581771882082
 21
 8.973867290231226
  0
LINE
  8
254
  6
CONTINUOUS
 62
     2
 10
-85.997581771882082
 20
 8.973867290231226
 11
-85.893516830475832
 21
 8.9447077443327885
  0
LINE
  8
254
  6
CONTINUOUS
 62
     2
 10
-85.893516830475832
 20
 8.9447077443327885
 11
-85.784096054108645
 21
 8.929647319528101
  0
LINE
  8
254
  6
CONTINUOUS
 62
     2
 10
-85.784096054108645
 20
 8.929647319528101
 11
-85.670105270417238
 21
 8.9288271596159916
  0
LINE
  8
254
  6
CONTINUOUS
 62
     2
 10
-85.670105270417238
 20
 8.9288271596159916
 11
-85.552429489167238
 21
 8.9422243764128666
  0
LINE
  8
254
  6
CONTINUOUS
 62
     2
 10
-85.552429489167238
 20
 8.9422243764128666
 11
-85.431984237702395
 21
 8.9697397877898197
  0
LINE
  8
254
  6
CONTINUOUS
 62
     2
 10
-85.431984237702395
 20
 8.9697397877898197
 11
-85.309669784577395
 21
 9.0111788441863041
  0
LINE
  8
254
  6
CONTINUOUS
 62
     2
 10
-85.309669784577395
 20
 9.0111788441863041
 11
-85.18640928653052
 21
 9.0662172963347416
  0
LINE
  8
254
  6
CONTINUOUS
 62
     2
 10
-85.18640928653052
 20
 9.0662172963347416
 11
-85.063156417878176
 21
 9.1344317128386479
  0
LINE
  8
254
  6
CONTINUOUS
 62
     2
 10
-85.063156417878176
 20
 9.1344317128386479
 11
-84.940834335358645
 21
 9.2153109242644291
  0
LINE
  8
254
  6
CONTINUOUS
 62
     2
 10
-84.940834335358645
 20
 9.2153109242644291
 11
-84.820389083893801
 21
 9.3082369496550541
  0
LINE
  8
254
  6
CONTINUOUS
 62
     2
 10
-84.820389083893801
 20
 9.3082369496550541
 11
-84.702713302643801
 21
 9.4125193288054447
  0
LINE
  8
254
  6
CONTINUOUS
 62
     2
 10
-84.702713302643801
 20
 9.4125193288054447
 11
-84.588730148346926
 21
 9.5273379018034916
  0
LINE
  8
254
  6
CONTINUOUS
 62
     2
 10
-84.588730148346926
 20
 9.5273379018034916
 11
-84.479309371979738
 21
 9.6518191029753666
  0
LINE
  8
254
  6
CONTINUOUS
 62
     2
 10
-84.479309371979738
 20
 9.6518191029753666
 11
-84.375259689362551
 21
 9.7850283314909916
  0
LINE
  8
254
  6
CONTINUOUS
 62
     2
 10
-84.375259689362551
 20
 9.7850283314909916
 11
-84.277374557526613
 21
 9.9259585072722416
  0
LINE
  8
254
  6
CONTINUOUS
 62
     2
 10
-84.277374557526613
 20
 9.9259585072722416
 11
-84.186416915925051
 21
 10.073510997506617
  0
LINE
  8
254
  6
CONTINUOUS
 62
     2
 10
-84.186416915925051
 20
 10.073510997506617
 11
-84.103065780671145
 21
 10.226587169381617
  0
LINE
  8
254
  6
CONTINUOUS
 62
     2
 10
-84.103065780671145
 20
 10.226587169381617
 11
-84.027954391510988
 21
 10.384023540231226
  0
LINE
  8
254
  6
CONTINUOUS
 62
     2
 10
-84.027954391510988
 20
 10.384023540231226
 11
-83.961670211823488
 21
 10.544614665719507
  0
LINE
  8
254
  6
CONTINUOUS
 62
     2
 10
-83.961670211823488
 20
 10.544614665719507
 11
-83.904709152253176
 21
 10.707124583932398
  0
LINE
  8
254
  6
CONTINUOUS
 62
     2
 10
-83.904709152253176
 20
 10.707124583932398
 11
-83.857483200104738
 21
 10.870340221139429
  0
LINE
  8
254
  6
CONTINUOUS
 62
     2
 10
-83.857483200104738
 20
 10.870340221139429
 11
-83.820396713288332
 21
 11.032979839059351
  0
LINE
  8
254
  6
CONTINUOUS
 62
     2
 10
-83.820396713288332
 20
 11.032979839059351
 11
-83.793678573639895
 21
 11.193864696237085
  0
LINE
  8
254
  6
CONTINUOUS
 62
     2
 10
-83.793678573639895
 20
 11.193864696237085
 11
-83.777580551178957
 21
 11.351724498483179
  0
LINE
  8
254
  6
CONTINUOUS
 62
     2
 10
-83.777580551178957
 20
 11.351724498483179
 11
-83.772201828034426
 21
 11.505380504342554
  0
LINE
  8
0
  6
CONTINUOUS
 62
     2
 10
-87.667991928132082
 20
-0.5307179758820553
 11
-87.66126280215552
 21
-0.338663227346899
  0
LINE
  8
0
  6
CONTINUOUS
 62
     2
 10
-87.66126280215552
 20
-0.338663227346899
 11
-87.667991928132082
 21
-0.1533261606965084
  0
LINE
  8
0
  6
CONTINUOUS
 62
     2
 10
-87.667991928132082
 20
-0.1533261606965084
 11
-87.68811827090552
 21
 0.0238741566863041
  0
LINE
  8
0
  6
CONTINUOUS
 62
     2
 10
-87.68811827090552
 20
 0.0238741566863041
 11
-87.721489242585207
 21
 0.1915758778777104
  0
LINE
  8
0
  6
CONTINUOUS
 62
     2
 10
-87.721489242585207
 20
 0.1915758778777104
 11
-87.767875961335207
 21
 0.3485277821745854
  0
LINE
  8
0
  6
CONTINUOUS
 62
     2
 10
-87.767875961335207
 20
 0.3485277821745854
 11
-87.826889328034426
 21
 0.4935282399382572
  0
LINE
  8
0
  6
CONTINUOUS
 62
     2
 10
-87.826889328034426
 20
 0.4935282399382572
 11
-87.898102096589113
 21
 0.6254442860808354
  0
LINE
  8
0
  6
CONTINUOUS
 62
     2
 10
-87.898102096589113
 20
 0.6254442860808354
 11
-87.980957321198488
 21
 0.7433260609831791
  0
LINE
  8
0
  6
CONTINUOUS
 62
     2
 10
-87.980957321198488
 20
 0.7433260609831791
 11
-88.074844650300051
 21
 0.8462237050261479
  0
LINE
  8
0
  6
CONTINUOUS
 62
     2
 10
-88.074844650300051
 20
 0.8462237050261479
 11
-88.179031662018801
 21
 0.9333819081511479
  0
LINE
  8
0
  6
CONTINUOUS
 62
     2
 10
-88.179031662018801
 20
 0.9333819081511479
 11
-88.292740158112551
 21
 1.0041369130339604
  0
LINE
  8
0
  6
CONTINUOUS
 62
     2
 10
-88.292740158112551
 20
 1.0041369130339604
 11
-88.415077499421145
 21
 1.0579546620573979
  0
LINE
  8
0
  6
CONTINUOUS
 62
     2
 10
-88.415077499421145
 20
 1.0579546620573979
 11
-88.545151046784426
 21
 1.0944079091277104
  0
LINE
  8
0
  6
CONTINUOUS
 62
     2
 10
-88.545151046784426
 20
 1.0944079091277104
 11
-88.681938461335207
 21
 1.1132258107390385
  0
LINE
  8
0
  6
CONTINUOUS
 62
     2
 10
-88.681938461335207
 20
 1.1132258107390385
 11
-88.824417404206301
 21
 1.114248149606226
  0
LINE
  8
0
  6
CONTINUOUS
 62
     2
 10
-88.824417404206301
 20
 1.114248149606226
 11
-88.971496871979738
 21
 1.097524516793726
  0
LINE
  8
0
  6
CONTINUOUS
 62
     2
 10
-88.971496871979738
 20
 1.097524516793726
 11
-89.122062973053957
 21
 1.0631197621550541
  0
LINE
  8
0
  6
CONTINUOUS
 62
     2
 10
-89.122062973053957
 20
 1.0631197621550541
 11
-89.274956039460207
 21
 1.0113276173796635
  0
LINE
  8
0
  6
CONTINUOUS
 62
     2
 10
-89.274956039460207
 20
 1.0113276173796635
 11
-89.429039291413332
 21
 0.9425219227995854
  0
LINE
  8
0
  6
CONTINUOUS
 62
     2
 10
-89.429039291413332
 20
 0.9425219227995854
 11
-89.583099655182863
 21
 0.8572481801238041
  0
LINE
  8
0
  6
CONTINUOUS
 62
     2
 10
-89.583099655182863
 20
 0.8572481801238041
 11
-89.736000350983645
 21
 0.7561434437956791
  0
LINE
  8
0
  6
CONTINUOUS
 62
     2
 10
-89.736000350983645
 20
 0.7561434437956791
 11
-89.886566452057863
 21
 0.6399820973601322
  0
LINE
  8
0
  6
CONTINUOUS
 62
     2
 10
-89.886566452057863
 20
 0.6399820973601322
 11
-90.033645919831301
 21
 0.5096529652800541
  0
LINE
  8
0
  6
CONTINUOUS
 62
     2
 10
-90.033645919831301
 20
 0.5096529652800541
 11
-90.176124862702395
 21
 0.3661364247527104
  0
LINE
  8
0
  6
CONTINUOUS
 62
     2
 10
-90.176124862702395
 20
 0.3661364247527104
 11
-90.312912277253176
 21
 0.2105196644988041
  0
LINE
  8
0
  6
CONTINUOUS
 62
     2
 10
-90.312912277253176
 20
 0.2105196644988041
 11
-90.442978195221926
 21
 0.043996684762476
  0
LINE
  8
0
  6
CONTINUOUS
 62
     2
 10
-90.442978195221926
 20
 0.043996684762476
 11
-90.565330795319582
 21
-0.1321622202668209
  0
LINE
  8
0
  6
CONTINUOUS
 62
     2
 10
-90.565330795319582
 20
-0.1321622202668209
 11
-90.679031662018801
 21
-0.3166066477570553
  0
LINE
  8
0
  6
CONTINUOUS
 62
     2
 10
-90.679031662018801
 20
-0.3166066477570553
 11
-90.783218673737551
 21
-0.5079594919953365
  0
LINE
  8
0
  6
CONTINUOUS
 62
     2
 10
-90.783218673737551
 20
-0.5079594919953365
 11
-90.877098373444582
 21
-0.7047444651398678
  0
LINE
  8
0
  6
CONTINUOUS
 62
     2
 10
-90.877098373444582
 20
-0.7047444651398678
 11
-90.959961227448488
 21
-0.9054738352570553
  0
LINE
  8
0
  6
CONTINUOUS
 62
     2
 10
-90.959961227448488
 20
-0.9054738352570553
 11
-91.031173996003176
 21
-1.1086140940461178
  0
LINE
  8
0
  6
CONTINUOUS
 62
     2
 10
-91.031173996003176
 20
-1.1086140940461178
 11
-91.090187362702395
 21
-1.3126164744172115
  0
LINE
  8
0
  6
CONTINUOUS
 62
     2
 10
-91.090187362702395
 20
-1.3126164744172115
 11
-91.136558822663332
 21
-1.515939838675024
  0
LINE
  8
0
  6
CONTINUOUS
 62
     2
 10
-91.136558822663332
 20
-1.515939838675024
 11
-91.169937423737551
 21
-1.7170354197297115
  0
LINE
  8
0
  6
CONTINUOUS
 62
     2
 10
-91.169937423737551
 20
-1.7170354197297115
 11
-91.19007139590552
 21
-1.9143544504914303
  0
LINE
  8
0
  6
CONTINUOUS
 62
     2
 10
-91.19007139590552
 20
-1.9143544504914303
 11
-91.196800521882082
 21
-2.106424457815649
  0
LINE
  8
0
  6
CONTINUOUS
 62
     2
 10
-91.196800521882082
 20
-2.106424457815649
 11
-91.19007139590552
 21
-2.2917500803742428
  0
LINE
  8
0
  6
CONTINUOUS
 62
     2
 10
-91.19007139590552
 20
-2.2917500803742428
 11
-91.169937423737551
 21
-2.4689503977570553
  0
LINE
  8
0
  6
CONTINUOUS
 62
     2
 10
-91.169937423737551
 20
-2.4689503977570553
 11
-91.136558822663332
 21
-2.6366521189484615
  0
LINE
  8
0
  6
CONTINUOUS
 62
     2
 10
-91.136558822663332
 20
-2.6366521189484615
 11
-91.090187362702395
 21
-2.793619282034399
  0
LINE
  8
0
  6
CONTINUOUS
 62
     2
 10
-91.090187362702395
 20
-2.793619282034399
 11
-91.031173996003176
 21
-2.938608295706274
  0
LINE
  8
0
  6
CONTINUOUS
 62
     2
 10
-91.031173996003176
 20
-2.938608295706274
 11
-90.959961227448488
 21
-3.0705510447297115
  0
LINE
  8
0
  6
CONTINUOUS
 62
     2
 10
-90.959961227448488
 20
-3.0705510447297115
 11
-90.877098373444582
 21
-3.1884023020539303
  0
LINE
  8
0
  6
CONTINUOUS
 62
     2
 10
-90.877098373444582
 20
-3.1884023020539303
 11
-90.783218673737551
 21
-3.291299946096899
  0
LINE
  8
0
  6
CONTINUOUS
 62
     2
 10
-90.783218673737551
 20
-3.291299946096899
 11
-90.679031662018801
 21
-3.378458149221899
  0
LINE
  8
0
  6
CONTINUOUS
 62
     2
 10
-90.679031662018801
 20
-3.378458149221899
 11
-90.565330795319582
 21
-3.449228412893774
  0
LINE
  8
0
  6
CONTINUOUS
 62
     2
 10
-90.565330795319582
 20
-3.449228412893774
 11
-90.442978195221926
 21
-3.503030903128149
  0
LINE
  8
0
  6
CONTINUOUS
 62
     2
 10
-90.442978195221926
 20
-3.503030903128149
 11
-90.312912277253176
 21
-3.5394841501984615
  0
LINE
  8
0
  6
CONTINUOUS
 62
     2
 10
-90.312912277253176
 20
-3.5394841501984615
 11
-90.176124862702395
 21
-3.558298237112524
  0
LINE
  8
0
  6
CONTINUOUS
 62
     2
 10
-90.176124862702395
 20
-3.558298237112524
 11
-90.033630661042238
 21
-3.5593510935578365
  0
LINE
  8
0
  6
CONTINUOUS
 62
     2
 10
-90.033630661042238
 20
-3.5593510935578365
 11
-89.886551193268801
 21
-3.5425969431672115
  0
LINE
  8
0
  6
CONTINUOUS
 62
     2
 10
-89.886551193268801
 20
-3.5425969431672115
 11
-89.736000350983645
 21
-3.5081960032258053
  0
LINE
  8
0
  6
CONTINUOUS
 62
     2
 10
-89.736000350983645
 20
-3.5081960032258053
 11
-89.583099655182863
 21
-3.456400043753149
  0
LINE
  8
0
  6
CONTINUOUS
 62
     2
 10
-89.583099655182863
 20
-3.456400043753149
 11
-89.429039291413332
 21
-3.3875981638703365
  0
LINE
  8
0
  6
CONTINUOUS
 62
     2
 10
-89.429039291413332
 20
-3.3875981638703365
 11
-89.274956039460207
 21
-3.3023244211945553
  0
LINE
  8
0
  6
CONTINUOUS
 62
     2
 10
-89.274956039460207
 20
-3.3023244211945553
 11
-89.122062973053957
 21
-3.2012196848664303
  0
LINE
  8
0
  6
CONTINUOUS
 62
     2
 10
-89.122062973053957
 20
-3.2012196848664303
 11
-88.971496871979738
 21
-3.0850545237336178
  0
LINE
  8
0
  6
CONTINUOUS
 62
     2
 10
-88.971496871979738
 20
-3.0850545237336178
 11
-88.930748275788332
 21
-3.0489674876008053
  0
LINE
  8
0
  6
CONTINUOUS
 62
     2
 10
-83.778930954010988
 20
 11.666864268990992
 11
-83.772201828034426
 21
 11.858919017526148
  0
LINE
  8
0
  6
CONTINUOUS
 62
     2
 10
-83.772201828034426
 20
 11.858919017526148
 11
-83.778930954010988
 21
 12.044259898873804
  0
LINE
  8
0
  6
CONTINUOUS
 62
     2
 10
-83.778930954010988
 20
 12.044259898873804
 11
-83.799049667389895
 21
 12.221460216256617
  0
LINE
  8
0
  6
CONTINUOUS
 62
     2
 10
-83.799049667389895
 20
 12.221460216256617
 11
-83.832443527253176
 21
 12.389177196237085
  0
LINE
  8
0
  6
CONTINUOUS
 62
     2
 10
-83.832443527253176
 20
 12.389177196237085
 11
-83.878799728425051
 21
 12.546110027047632
  0
LINE
  8
0
  6
CONTINUOUS
 62
     2
 10
-83.878799728425051
 20
 12.546110027047632
 11
-83.937828353913332
 21
 12.691102855416773
  0
LINE
  8
0
  6
CONTINUOUS
 62
     2
 10
-83.937828353913332
 20
 12.691102855416773
 11
-84.00904112246802
 21
 12.82304560444021
  0
LINE
  8
0
  6
CONTINUOUS
 62
     2
 10
-84.00904112246802
 20
 12.82304560444021
 11
-84.091888717682863
 21
 12.940912120553492
  0
LINE
  8
0
  6
CONTINUOUS
 62
     2
 10
-84.091888717682863
 20
 12.940912120553492
 11
-84.185776046784426
 21
 13.04380976459646
  0
LINE
  8
0
  6
CONTINUOUS
 62
     2
 10
-84.185776046784426
 20
 13.04380976459646
 11
-84.289955429108645
 21
 13.13096796772146
  0
LINE
  8
0
  6
CONTINUOUS
 62
     2
 10
-84.289955429108645
 20
 13.13096796772146
 11
-84.403663925202395
 21
 13.201719157907007
  0
LINE
  8
0
  6
CONTINUOUS
 62
     2
 10
-84.403663925202395
 20
 13.201719157907007
 11
-84.526016525300051
 21
 13.255529277535913
  0
LINE
  8
0
  6
CONTINUOUS
 62
     2
 10
-84.526016525300051
 20
 13.255529277535913
 11
-84.656090072663332
 21
 13.291982524606226
  0
LINE
  8
0
  6
CONTINUOUS
 62
     2
 10
-84.656090072663332
 20
 13.291982524606226
 11
-84.792877487214113
 21
 13.310796611520288
  0
LINE
  8
0
  6
CONTINUOUS
 62
     2
 10
-84.792877487214113
 20
 13.310796611520288
 11
-84.935348800690676
 21
 13.311849467965601
  0
LINE
  8
0
  6
CONTINUOUS
 62
     2
 10
-84.935348800690676
 20
 13.311849467965601
 11
-85.082428268464113
 21
 13.295095317574976
  0
LINE
  8
0
  6
CONTINUOUS
 62
     2
 10
-85.082428268464113
 20
 13.295095317574976
 11
-85.232994369538332
 21
 13.260705821725367
  0
LINE
  8
0
  6
CONTINUOUS
 62
     2
 10
-85.232994369538332
 20
 13.260705821725367
 11
-85.385895065339113
 21
 13.208898418160913
  0
LINE
  8
0
  6
CONTINUOUS
 62
     2
 10
-85.385895065339113
 20
 13.208898418160913
 11
-85.539963058503176
 21
 13.140107982369898
  0
LINE
  8
0
  6
CONTINUOUS
 62
     2
 10
-85.539963058503176
 20
 13.140107982369898
 11
-85.69403868106177
 21
 13.054834239694117
  0
LINE
  8
0
  6
CONTINUOUS
 62
     2
 10
-85.69403868106177
 20
 13.054834239694117
 11
-85.846939376862551
 21
 12.953729503365992
  0
LINE
  8
0
  6
CONTINUOUS
 62
     2
 10
-85.846939376862551
 20
 12.953729503365992
 11
-85.99750547793677
 21
 12.837568156930445
  0
LINE
  8
0
  6
CONTINUOUS
 62
     2
 10
-85.99750547793677
 20
 12.837568156930445
 11
-86.144584945710207
 21
 12.707239024850367
  0
LINE
  8
0
  6
CONTINUOUS
 62
     2
 10
-86.144584945710207
 20
 12.707239024850367
 11
-86.287063888581301
 21
 12.563711040231226
  0
LINE
  8
0
  6
CONTINUOUS
 62
     2
 10
-86.287063888581301
 20
 12.563711040231226
 11
-86.423851303132082
 21
 12.408105724069117
  0
LINE
  8
0
  6
CONTINUOUS
 62
     2
 10
-86.423851303132082
 20
 12.408105724069117
 11
-86.553917221100832
 21
 12.241582744332788
  0
LINE
  8
0
  6
CONTINUOUS
 62
     2
 10
-86.553917221100832
 20
 12.241582744332788
 11
-86.676262191803957
 21
 12.065420024606226
  0
LINE
  8
0
  6
CONTINUOUS
 62
     2
 10
-86.676262191803957
 20
 12.065420024606226
 11
-86.789963058503176
 21
 11.88096796772146
  0
LINE
  8
0
  6
CONTINUOUS
 62
     2
 10
-86.789963058503176
 20
 11.88096796772146
 11
-86.894157699616457
 21
 11.689630382272242
  0
LINE
  8
0
  6
CONTINUOUS
 62
     2
 10
-86.894157699616457
 20
 11.689630382272242
 11
-86.98804502871802
 21
 11.492830150338648
  0
LINE
  8
0
  6
CONTINUOUS
 62
     2
 10
-86.98804502871802
 20
 11.492830150338648
 11
-87.070892623932863
 21
 11.292112224313257
  0
LINE
  8
0
  6
CONTINUOUS
 62
     2
 10
-87.070892623932863
 20
 11.292112224313257
 11
-87.142105392487551
 21
 11.088968150826929
  0
LINE
  8
0
  6
CONTINUOUS
 62
     2
 10
-87.142105392487551
 20
 11.088968150826929
 11
-87.201134017975832
 21
 10.884965770455835
  0
LINE
  8
0
  6
CONTINUOUS
 62
     2
 10
-87.201134017975832
 20
 10.884965770455835
 11
-87.247490219147707
 21
 10.681630962106226
  0
LINE
  8
0
  6
CONTINUOUS
 62
     2
 10
-87.247490219147707
 20
 10.681630962106226
 11
-87.280884079010988
 21
 10.480550639840601
  0
LINE
  8
0
  6
CONTINUOUS
 62
     2
 10
-87.280884079010988
 20
 10.480550639840601
 11
-87.301002792389895
 21
 10.283227794381617
  0
LINE
  8
0
  6
CONTINUOUS
 62
     2
 10
-87.301002792389895
 20
 10.283227794381617
 11
-87.307731918366457
 21
 10.091161601754663
  0
LINE
  8
0
  6
CONTINUOUS
 62
     2
 10
-87.307731918366457
 20
 10.091161601754663
 11
-87.301002792389895
 21
 9.9058321644988041
  0
LINE
  8
0
  6
CONTINUOUS
 62
     2
 10
-87.301002792389895
 20
 9.9058321644988041
 11
-87.280884079010988
 21
 9.7286318471159916
  0
LINE
  8
0
  6
CONTINUOUS
 62
     2
 10
-87.280884079010988
 20
 9.7286318471159916
 11
-87.247490219147707
 21
 9.5609186818327885
  0
LINE
  8
0
  6
CONTINUOUS
 62
     2
 10
-87.247490219147707
 20
 9.5609186818327885
 11
-87.20111875918677
 21
 9.4039705922331791
  0
LINE
  8
0
  6
CONTINUOUS
 62
     2
 10
-87.20111875918677
 20
 9.4039705922331791
 11
-87.142105392487551
 21
 9.2589663197722416
  0
LINE
  8
0
  6
CONTINUOUS
 62
     2
 10
-87.142105392487551
 20
 9.2589663197722416
 11
-87.070892623932863
 21
 9.127035014840601
  0
LINE
  8
0
  6
CONTINUOUS
 62
     2
 10
-87.070892623932863
 20
 9.127035014840601
 11
-86.98804502871802
 21
 9.0091799428191166
  0
LINE
  8
0
  6
CONTINUOUS
 62
     2
 10
-86.98804502871802
 20
 9.0091799428191166
 11
-86.894157699616457
 21
 8.906270854684351
  0
LINE
  8
0
  6
CONTINUOUS
 62
     2
 10
-86.894157699616457
 20
 8.906270854684351
 11
-86.789963058503176
 21
 8.8190973927702885
  0
LINE
  8
0
  6
CONTINUOUS
 62
     2
 10
-86.789963058503176
 20
 8.8190973927702885
 11
-86.676262191803957
 21
 8.7483614613738041
  0
LINE
  8
0
  6
CONTINUOUS
 62
     2
 10
-86.676262191803957
 20
 8.7483614613738041
 11
-86.55390196231177
 21
 8.6945513417448979
  0
LINE
  8
0
  6
CONTINUOUS
 62
     2
 10
-86.55390196231177
 20
 8.6945513417448979
 11
-86.423851303132082
 21
 8.6580980946745854
  0
LINE
  8
0
  6
CONTINUOUS
 62
     2
 10
-86.423851303132082
 20
 8.6580980946745854
 11
-86.287063888581301
 21
 8.6392840077605229
  0
LINE
  8
0
  6
CONTINUOUS
 62
     2
 10
-86.287063888581301
 20
 8.6392840077605229
 11
-86.144584945710207
 21
 8.6382464101042729
  0
LINE
  8
0
  6
CONTINUOUS
 62
     2
 10
-86.144584945710207
 20
 8.6382464101042729
 11
-85.99750547793677
 21
 8.6549853017058354
  0
LINE
  8
0
  6
CONTINUOUS
 62
     2
 10
-85.99750547793677
 20
 8.6549853017058354
 11
-85.846939376862551
 21
 8.6893862416472416
  0
LINE
  8
0
  6
CONTINUOUS
 62
     2
 10
-85.846939376862551
 20
 8.6893862416472416
 11
-85.694023422272707
 21
 8.7411822011198979
  0
LINE
  8
0
  6
CONTINUOUS
 62
     2
 10
-85.694023422272707
 20
 8.7411822011198979
 11
-85.539963058503176
 21
 8.8099726369109135
  0
LINE
  8
0
  6
CONTINUOUS
 62
     2
 10
-85.539963058503176
 20
 8.8099726369109135
 11
-85.385895065339113
 21
 8.8952463795866947
  0
LINE
  8
0
  6
CONTINUOUS
 62
     2
 10
-85.385895065339113
 20
 8.8952463795866947
 11
-85.232994369538332
 21
 8.9963511159148197
  0
LINE
  8
0
  6
CONTINUOUS
 62
     2
 10
-85.232994369538332
 20
 8.9963511159148197
 11
-85.082428268464113
 21
 9.1125162770476322
  0
LINE
  8
0
  6
CONTINUOUS
 62
     2
 10
-85.082428268464113
 20
 9.1125162770476322
 11
-85.04163389590552
 21
 9.1486605336394291
  0
LINE
  8
0
  6
CONTINUOUS
 62
     2
 10
-85.87470274356177
 20
 13.841283672067163
 11
-85.953537277253176
 21
 13.927698009225367
  0
LINE
  8
0
  6
CONTINUOUS
 62
     2
 10
-85.953537277253176
 20
 13.927698009225367
 11
-86.057731918366457
 21
 14.014856212350367
  0
LINE
  8
0
  6
CONTINUOUS
 62
     2
 10
-86.057731918366457
 20
 14.014856212350367
 11
-86.171432785065676
 21
 14.085607402535913
  0
LINE
  8
0
  6
CONTINUOUS
 62
     2
 10
-86.171432785065676
 20
 14.085607402535913
 11
-86.293777755768801
 21
 14.139413707467554
  0
LINE
  8
0
  6
CONTINUOUS
 62
     2
 10
-86.293777755768801
 20
 14.139413707467554
 11
-86.423851303132082
 21
 14.175866954537867
  0
LINE
  8
0
  6
CONTINUOUS
 62
     2
 10
-86.423851303132082
 20
 14.175866954537867
 11
-86.560631088288332
 21
 14.194684856149195
  0
LINE
  8
0
  6
CONTINUOUS
 62
     2
 10
-86.560631088288332
 20
 14.194684856149195
 11
-86.703110031159426
 21
 14.195722453805445
  0
LINE
  8
0
  6
CONTINUOUS
 62
     2
 10
-86.703110031159426
 20
 14.195722453805445
 11
-86.850189498932863
 21
 14.17896830341482
  0
LINE
  8
0
  6
CONTINUOUS
 62
     2
 10
-86.850189498932863
 20
 14.17896830341482
 11
-87.000755600007082
 21
 14.14457880756521
  0
LINE
  8
0
  6
CONTINUOUS
 62
     2
 10
-87.000755600007082
 20
 14.14457880756521
 11
-87.153656295807863
 21
 14.092771404000757
  0
LINE
  8
0
  6
CONTINUOUS
 62
     2
 10
-87.153656295807863
 20
 14.092771404000757
 11
-87.307731918366457
 21
 14.023996226998804
  0
LINE
  8
0
  6
CONTINUOUS
 62
     2
 10
-87.307731918366457
 20
 14.023996226998804
 11
-87.46179991153052
 21
 13.93870722553396
  0
LINE
  8
0
  6
CONTINUOUS
 62
     2
 10
-87.46179991153052
 20
 13.93870722553396
 11
-87.614700607331301
 21
 13.837617747994898
  0
LINE
  8
0
  6
CONTINUOUS
 62
     2
 10
-87.614700607331301
 20
 13.837617747994898
 11
-87.76526670840552
 21
 13.721452586862085
  0
LINE
  8
0
  6
CONTINUOUS
 62
     2
 10
-87.76526670840552
 20
 13.721452586862085
 11
-87.912346176178957
 21
 13.59111201069021
  0
LINE
  8
0
  6
CONTINUOUS
 62
     2
 10
-87.912346176178957
 20
 13.59111201069021
 11
-88.05481748965552
 21
 13.447595470162867
  0
LINE
  8
0
  6
CONTINUOUS
 62
     2
 10
-88.05481748965552
 20
 13.447595470162867
 11
-88.191604904206301
 21
 13.291982524606226
  0
LINE
  8
0
  6
CONTINUOUS
 62
     2
 10
-88.191604904206301
 20
 13.291982524606226
 11
-88.321678451569582
 21
 13.125455730172632
  0
LINE
  8
0
  6
CONTINUOUS
 62
     2
 10
-88.321678451569582
 20
 13.125455730172632
 11
-88.444031051667238
 21
 12.949308269235132
  0
LINE
  8
0
  6
CONTINUOUS
 62
     2
 10
-88.444031051667238
 20
 12.949308269235132
 11
-88.557739547760988
 21
 12.764852397653101
  0
LINE
  8
0
  6
CONTINUOUS
 62
     2
 10
-88.557739547760988
 20
 12.764852397653101
 11
-88.661918930085207
 21
 12.573503368112085
  0
LINE
  8
0
  6
CONTINUOUS
 62
     2
 10
-88.661918930085207
 20
 12.573503368112085
 11
-88.75580625918677
 21
 12.376718394967554
  0
LINE
  8
0
  6
CONTINUOUS
 62
     2
 10
-88.75580625918677
 20
 12.376718394967554
 11
-88.838653854401613
 21
 12.175996654244898
  0
LINE
  8
0
  6
CONTINUOUS
 62
     2
 10
-88.838653854401613
 20
 12.175996654244898
 11
-88.909866622956301
 21
 11.97285258075857
  0
LINE
  8
0
  6
CONTINUOUS
 62
     2
 10
-88.909866622956301
 20
 11.97285258075857
 11
-88.968895248444582
 21
 11.768838756295679
  0
LINE
  8
0
  6
CONTINUOUS
 62
     2
 10
-88.968895248444582
 20
 11.768838756295679
 11
-89.015251449616457
 21
 11.565519206735132
  0
LINE
  8
0
  6
CONTINUOUS
 62
     2
 10
-89.015251449616457
 20
 11.565519206735132
 11
-89.048645309479738
 21
 11.36442744037771
  0
LINE
  8
0
  6
CONTINUOUS
 62
     2
 10
-89.048645309479738
 20
 11.36442744037771
 11
-89.068764022858645
 21
 11.16710078022146
  0
LINE
  8
0
  6
CONTINUOUS
 62
     2
 10
-89.068764022858645
 20
 11.16710078022146
 11
-89.075493148835207
 21
 10.975046031686304
  0
LINE
  8
0
  6
CONTINUOUS
 62
     2
 10
-89.075493148835207
 20
 10.975046031686304
 11
-89.068764022858645
 21
 10.789708965035913
  0
LINE
  8
0
  6
CONTINUOUS
 62
     2
 10
-89.068764022858645
 20
 10.789708965035913
 11
-89.048645309479738
 21
 10.612508647653101
  0
LINE
  8
0
  6
CONTINUOUS
 62
     2
 10
-89.048645309479738
 20
 10.612508647653101
 11
-89.015251449616457
 21
 10.444803111764429
  0
LINE
  8
0
  6
CONTINUOUS
 62
     2
 10
-89.015251449616457
 20
 10.444803111764429
 11
-88.968895248444582
 21
 10.287843578073023
  0
LINE
  8
0
  6
CONTINUOUS
 62
     2
 10
-88.968895248444582
 20
 10.287843578073023
 11
-88.909866622956301
 21
 10.142850749703882
  0
LINE
  8
0
  6
CONTINUOUS
 62
     2
 10
-88.909866622956301
 20
 10.142850749703882
 11
-88.838653854401613
 21
 10.010934703561304
  0
LINE
  8
0
  6
CONTINUOUS
 62
     2
 10
-88.838653854401613
 20
 10.010934703561304
 11
-88.75580625918677
 21
 9.8930681874480229
  0
LINE
  8
0
  6
CONTINUOUS
 62
     2
 10
-88.75580625918677
 20
 9.8930681874480229
 11
-88.661918930085207
 21
 9.7901552846159916
  0
LINE
  8
0
  6
CONTINUOUS
 62
     2
 10
-88.661918930085207
 20
 9.7901552846159916
 11
-88.557739547760988
 21
 9.7029970814909916
  0
LINE
  8
0
  6
CONTINUOUS
 62
     2
 10
-88.557739547760988
 20
 9.7029970814909916
 11
-88.444031051667238
 21
 9.6322344472136479
  0
LINE
  8
0
  6
CONTINUOUS
 62
     2
 10
-88.444031051667238
 20
 9.6322344472136479
 11
-88.321678451569582
 21
 9.5784395863738041
  0
LINE
  8
0
  6
CONTINUOUS
 62
     2
 10
-88.321678451569582
 20
 9.5784395863738041
 11
-88.191604904206301
 21
 9.5419863393034916
  0
LINE
  8
0
  6
CONTINUOUS
 62
     2
 10
-88.191604904206301
 20
 9.5419863393034916
 11
-88.05481748965552
 21
 9.5231722523894291
  0
LINE
  8
0
  6
CONTINUOUS
 62
     2
 10
-88.05481748965552
 20
 9.5231722523894291
 11
-88.033630661042238
 21
 9.5230044057097416
  0
LINE
  8
0
  6
CONTINUOUS
 62
     2
 10
-86.202835372956301
 20
 13.811776988717554
 11
-86.285057357819582
 21
 13.862932079049585
  0
LINE
  8
0
  6
CONTINUOUS
 62
     2
 10
-86.285057357819582
 20
 13.862932079049585
 11
-86.395172409089113
 21
 13.911355846139429
  0
LINE
  8
0
  6
CONTINUOUS
 62
     2
 10
-86.395172409089113
 20
 13.911355846139429
 11
-86.512237838776613
 21
 13.94416605732107
  0
LINE
  8
0
  6
CONTINUOUS
 62
     2
 10
-86.512237838776613
 20
 13.94416605732107
 11
-86.635345748932863
 21
 13.961110942574976
  0
LINE
  8
0
  6
CONTINUOUS
 62
     2
 10
-86.635345748932863
 20
 13.961110942574976
 11
-86.763588241608645
 21
 13.962034099313257
  0
LINE
  8
0
  6
CONTINUOUS
 62
     2
 10
-86.763588241608645
 20
 13.962034099313257
 11
-86.895950607331301
 21
 13.94697367450857
  0
LINE
  8
0
  6
CONTINUOUS
 62
     2
 10
-86.895950607331301
 20
 13.94697367450857
 11
-87.031456283600832
 21
 13.916009776803492
  0
LINE
  8
0
  6
CONTINUOUS
 62
     2
 10
-87.031456283600832
 20
 13.916009776803492
 11
-87.169060043366457
 21
 13.869405620309351
  0
LINE
  8
0
  6
CONTINUOUS
 62
     2
 10
-87.169060043366457
 20
 13.869405620309351
 11
-87.307731918366457
 21
 13.80748163959646
  0
LINE
  8
0
  6
CONTINUOUS
 62
     2
 10
-87.307731918366457
 20
 13.80748163959646
 11
-87.446396163971926
 21
 13.730733745309351
  0
LINE
  8
0
  6
CONTINUOUS
 62
     2
 10
-87.446396163971926
 20
 13.730733745309351
 11
-87.583999923737551
 21
 13.639741771432398
  0
LINE
  8
0
  6
CONTINUOUS
 62
     2
 10
-87.583999923737551
 20
 13.639741771432398
 11
-87.719505600007082
 21
 13.53520380756521
  0
LINE
  8
0
  6
CONTINUOUS
 62
     2
 10
-87.719505600007082
 20
 13.53520380756521
 11
-87.851883224518801
 21
 13.417886607858179
  0
LINE
  8
0
  6
CONTINUOUS
 62
     2
 10
-87.851883224518801
 20
 13.417886607858179
 11
-87.98011045840552
 21
 13.288724773141382
  0
LINE
  8
0
  6
CONTINUOUS
 62
     2
 10
-87.98011045840552
 20
 13.288724773141382
 11
-88.103233627350832
 21
 13.148683421823023
  0
LINE
  8
0
  6
CONTINUOUS
 62
     2
 10
-88.103233627350832
 20
 13.148683421823023
 11
-88.22028379824927
 21
 12.998807780953882
  0
LINE
  8
0
  6
CONTINUOUS
 62
     2
 10
-88.22028379824927
 20
 12.998807780953882
 11
-88.33039122012427
 21
 12.840268962594507
  0
LINE
  8
0
  6
CONTINUOUS
 62
     2
 10
-88.33039122012427
 20
 12.840268962594507
 11
-88.432731918366457
 21
 12.674260966989038
  0
LINE
  8
0
  6
CONTINUOUS
 62
     2
 10
-88.432731918366457
 20
 12.674260966989038
 11
-88.52649717715552
 21
 12.502046458932398
  0
LINE
  8
0
  6
CONTINUOUS
 62
     2
 10
-88.52649717715552
 20
 12.502046458932398
 11
-88.610992721589113
 21
 12.324933879586695
  0
LINE
  8
0
  6
CONTINUOUS
 62
     2
 10
-88.610992721589113
 20
 12.324933879586695
 11
-88.685562423737551
 21
 12.144285075875757
  0
LINE
  8
0
  6
CONTINUOUS
 62
     2
 10
-88.685562423737551
 20
 12.144285075875757
 11
-88.749649337800051
 21
 11.961458080026148
  0
LINE
  8
0
  6
CONTINUOUS
 62
     2
 10
-88.749649337800051
 20
 11.961458080026148
 11
-88.802765182526613
 21
 11.777849071237085
  0
LINE
  8
0
  6
CONTINUOUS
 62
     2
 10
-88.802765182526613
 20
 11.777849071237085
 11
-88.844497970612551
 21
 11.594858043405054
  0
LINE
  8
0
  6
CONTINUOUS
 62
     2
 10
-88.844497970612551
 20
 11.594858043405054
 11
-88.874542526276613
 21
 11.413877361032007
  0
LINE
  8
0
  6
CONTINUOUS
 62
     2
 10
-88.874542526276613
 20
 11.413877361032007
 11
-88.892669967682863
 21
 11.236276500436304
  0
LINE
  8
0
  6
CONTINUOUS
 62
     2
 10
-88.892669967682863
 20
 11.236276500436304
 11
-88.898720077546145
 21
 11.063421123239038
  0
LINE
  8
0
  6
CONTINUOUS
 62
     2
 10
-88.898720077546145
 20
 11.063421123239038
 11
-88.892669967682863
 21
 10.896631114694117
  0
LINE
  8
0
  6
CONTINUOUS
 62
     2
 10
-88.892669967682863
 20
 10.896631114694117
 11
-88.874542526276613
 21
 10.737157695504663
  0
LINE
  8
0
  6
CONTINUOUS
 62
     2
 10
-88.874542526276613
 20
 10.737157695504663
 11
-88.844497970612551
 21
 10.586206310006617
  0
LINE
  8
0
  6
CONTINUOUS
 62
     2
 10
-88.844497970612551
 20
 10.586206310006617
 11
-88.802765182526613
 21
 10.44495951435232
  0
LINE
  8
0
  6
CONTINUOUS
 62
     2
 10
-88.802765182526613
 20
 10.44495951435232
 11
-88.749649337800051
 21
 10.31446635028982
  0
LINE
  8
0
  6
CONTINUOUS
 62
     2
 10
-88.749649337800051
 20
 10.31446635028982
 11
-88.685562423737551
 21
 10.195722453805445
  0
LINE
  8
0
  6
CONTINUOUS
 62
     2
 10
-88.685562423737551
 20
 10.195722453805445
 11
-88.610992721589113
 21
 10.08964716694021
  0
LINE
  8
0
  6
CONTINUOUS
 62
     2
 10
-88.610992721589113
 20
 10.08964716694021
 11
-88.52649717715552
 21
 9.997030132028101
  0
LINE
  8
0
  6
CONTINUOUS
 62
     2
 10
-88.52649717715552
 20
 9.997030132028101
 11
-88.432731918366457
 21
 9.9185885121550541
  0
LINE
  8
0
  6
CONTINUOUS
 62
     2
 10
-88.432731918366457
 20
 9.9185885121550541
 11
-88.33039122012427
 21
 9.854909770699976
  0
LINE
  8
0
  6
CONTINUOUS
 62
     2
 10
-88.33039122012427
 20
 9.854909770699976
 11
-88.22028379824927
 21
 9.8064745595183354
  0
LINE
  8
0
  6
CONTINUOUS
 62
     2
 10
-88.22028379824927
 20
 9.8064745595183354
 11
-88.208412460358645
 21
 9.803151958199976
  0
LINE
  8
0
  6
DASHDOT
 62
     2
 10
-53.105900100739504
 20
-5.241983539846899
 11
-60.390602401764895
 21
-1.599649555471899
  0
LINE
  8
0
  6
DASHDOT
 62
     2
 10
-62.991257003815676
 20
-0.2993298838410397
 11
-65.372803024323488
 21
 0.8914431264128666
  0
LINE
  8
0
  6
DASHDOT
 62
     2
 10
-74.526634506257082
 20
 5.4683779408659916
 11
-82.715744308503176
 21
 9.5629290272917729
  0
LINE
  8
254
  6
CONTINUOUS
 62
     7
 10
-54.896896652253176
 20
-0.1038380930695553
 11
-54.913040451081301
 21
 0.340963237496851
  0
LINE
  8
254
  6
CONTINUOUS
 62
     7
 10
-54.913040451081301
 20
 0.340963237496851
 11
-54.961349777253176
 21
 0.7662333180632572
  0
LINE
  8
254
  6
CONTINUOUS
 62
     7
 10
-54.961349777253176
 20
 0.7662333180632572
 11
-55.041458419831301
 21
 1.1687372853484135
  0
LINE
  8
254
  6
CONTINUOUS
 62
     7
 10
-55.041458419831301
 20
 1.1687372853484135
 11
-55.152756027253176
 21
 1.5454119374480229
  0
LINE
  8
254
  6
CONTINUOUS
 62
     7
 10
-55.152756027253176
 20
 1.5454119374480229
 11
-55.294403366120363
 21
 1.893392436715601
  0
LINE
  8
254
  6
CONTINUOUS
 62
     7
 10
-55.294403366120363
 20
 1.893392436715601
 11
-55.465301803620363
 21
 2.2100313832488041
  0
LINE
  8
254
  6
CONTINUOUS
 62
     7
 10
-55.465301803620363
 20
 2.2100313832488041
 11
-55.664169601471926
 21
 2.4928988148894291
  0
LINE
  8
254
  6
CONTINUOUS
 62
     7
 10
-55.664169601471926
 20
 2.4928988148894291
 11
-55.889480880768801
 21
 2.7398775746550541
  0
LINE
  8
254
  6
CONTINUOUS
 62
     7
 10
-55.889480880768801
 20
 2.7398775746550541
 11
-56.139541915925051
 21
 2.9490717580046635
  0
LINE
  8
254
  6
CONTINUOUS
 62
     7
 10
-56.139541915925051
 20
 2.9490717580046635
 11
-56.412411026032473
 21
 3.1188753773894291
  0
LINE
  8
254
  6
CONTINUOUS
 62
     7
 10
-56.412411026032473
 20
 3.1188753773894291
 11
-56.706058792145754
 21
 3.2480105092253666
  0
LINE
  8
254
  6
CONTINUOUS
 62
     7
 10
-56.706058792145754
 20
 3.2480105092253666
 11
-57.018219284089113
 21
 3.335500591012476
  0
LINE
  8
254
  6
CONTINUOUS
 62
     7
 10
-57.018219284089113
 20
 3.335500591012476
 11
-57.346512130768801
 21
 3.3806589772429447
  0
LINE
  8
254
  6
CONTINUOUS
 62
     7
 10
-57.346512130768801
 20
 3.3806589772429447
 11
-57.68845777896216
 21
 3.3831576039519291
  0
LINE
  8
254
  6
CONTINUOUS
 62
     7
 10
-57.68845777896216
 20
 3.3831576039519291
 11
-58.041454605134035
 21
 3.3429735829558354
  0
LINE
  8
254
  6
CONTINUOUS
 62
     7
 10
-58.041454605134035
 20
 3.3429735829558354
 11
-58.402805618317629
 21
 3.2604197194304447
  0
LINE
  8
254
  6
CONTINUOUS
 62
     7
 10
-58.402805618317629
 20
 3.2604197194304447
 11
-58.769760421784426
 21
 3.1361025502409916
  0
LINE
  8
254
  6
CONTINUOUS
 62
     7
 10
-58.769760421784426
 20
 3.1361025502409916
 11
-59.139526657135988
 21
 2.9709871937956791
  0
LINE
  8
254
  6
CONTINUOUS
 62
     7
 10
-59.139526657135988
 20
 2.9709871937956791
 11
-59.509308151276613
 21
 2.7663210561003666
  0
LINE
  8
254
  6
CONTINUOUS
 62
     7
 10
-59.509308151276613
 20
 2.7663210561003666
 11
-59.876251510651613
 21
 2.5236872365202885
  0
LINE
  8
254
  6
CONTINUOUS
 62
     7
 10
-59.876251510651613
 20
 2.5236872365202885
 11
-60.237613967927004
 21
 2.2448824574675541
  0
LINE
  8
254
  6
CONTINUOUS
 62
     7
 10
-60.237613967927004
 20
 2.2448824574675541
 11
-60.590610794098879
 21
 1.932088725778101
  0
LINE
  8
254
  6
CONTINUOUS
 62
     7
 10
-60.590610794098879
 20
 1.932088725778101
 11
-60.932556442292238
 21
 1.5876482655730229
  0
LINE
  8
254
  6
CONTINUOUS
 62
     7
 10
-60.932556442292238
 20
 1.5876482655730229
 11
-61.260849288971926
 21
 1.2141741444792729
  0
LINE
  8
254
  6
CONTINUOUS
 62
     7
 10
-61.260849288971926
 20
 1.2141741444792729
 11
-61.573013595612551
 21
 0.8145388295378666
  0
LINE
  8
254
  6
CONTINUOUS
 62
     7
 10
-61.573013595612551
 20
 0.8145388295378666
 11
-61.866653732331301
 21
 0.3917711903777104
  0
LINE
  8
254
  6
CONTINUOUS
 62
     7
 10
-61.866653732331301
 20
 0.3917711903777104
 11
-62.139526657135988
 21
-0.0509282419953365
  0
LINE
  8
254
  6
CONTINUOUS
 62
     7
 10
-62.139526657135988
 20
-0.0509282419953365
 11
-62.389587692292238
 21
-0.510172016409399
  0
LINE
  8
254
  6
CONTINUOUS
 62
     7
 10
-62.389587692292238
 20
-0.510172016409399
 11
-62.614898971589113
 21
-0.9824544260773678
  0
LINE
  8
254
  6
CONTINUOUS
 62
     7
 10
-62.614898971589113
 20
-0.9824544260773678
 11
-62.813766769440676
 21
-1.464212543753149
  0
LINE
  8
254
  6
CONTINUOUS
 62
     7
 10
-62.813766769440676
 20
-1.464212543753149
 11
-62.984665206940676
 21
-1.9517461130890865
  0
LINE
  8
254
  6
CONTINUOUS
 62
     7
 10
-62.984665206940676
 20
-1.9517461130890865
 11
-63.126312545807863
 21
-2.441354877737524
  0
LINE
  8
254
  6
CONTINUOUS
 62
     7
 10
-63.126312545807863
 20
-2.441354877737524
 11
-63.237610153229738
 21
-2.9293385813508053
  0
LINE
  8
254
  6
CONTINUOUS
 62
     7
 10
-63.237610153229738
 20
-2.9293385813508053
 11
-63.317718795807863
 21
-3.4119511912140865
  0
LINE
  8
254
  6
CONTINUOUS
 62
     7
 10
-63.317718795807863
 20
-3.4119511912140865
 11
-63.366028121979738
 21
-3.8855458567414303
  0
LINE
  8
254
  6
CONTINUOUS
 62
     7
 10
-63.366028121979738
 20
-3.8855458567414303
 11
-63.382171920807863
 21
-4.3464833567414303
  0
LINE
  8
254
  6
CONTINUOUS
 62
     7
 10
-63.382171920807863
 20
-4.3464833567414303
 11
-63.366028121979738
 21
-4.7912846873078365
  0
LINE
  8
254
  6
CONTINUOUS
 62
     7
 10
-63.366028121979738
 20
-4.7912846873078365
 11
-63.317718795807863
 21
-5.2165471384797115
  0
LINE
  8
254
  6
CONTINUOUS
 62
     7
 10
-63.317718795807863
 20
-5.2165471384797115
 11
-63.237610153229738
 21
-5.619058735159399
  0
LINE
  8
254
  6
CONTINUOUS
 62
     7
 10
-63.237610153229738
 20
-5.619058735159399
 11
-63.126312545807863
 21
-5.9957295725617428
  0
LINE
  8
254
  6
CONTINUOUS
 62
     7
 10
-63.126312545807863
 20
-5.9957295725617428
 11
-62.984665206940676
 21
-6.3437215159211178
  0
LINE
  8
254
  6
CONTINUOUS
 62
     7
 10
-62.984665206940676
 20
-6.3437215159211178
 11
-62.813766769440676
 21
-6.660349018362524
  0
LINE
  8
254
  6
CONTINUOUS
 62
     7
 10
-62.813766769440676
 20
-6.660349018362524
 11
-62.614898971589113
 21
-6.9432317087922115
  0
LINE
  8
254
  6
CONTINUOUS
 62
     7
 10
-62.614898971589113
 20
-6.9432317087922115
 11
-62.389587692292238
 21
-7.1902104685578365
  0
LINE
  8
254
  6
CONTINUOUS
 62
     7
 10
-62.389587692292238
 20
-7.1902104685578365
 11
-62.139526657135988
 21
-7.399393207815649
  0
LINE
  8
254
  6
CONTINUOUS
 62
     7
 10
-62.139526657135988
 20
-7.399393207815649
 11
-61.866653732331301
 21
-7.5692082712922115
  0
LINE
  8
254
  6
CONTINUOUS
 62
     7
 10
-61.866653732331301
 20
-7.5692082712922115
 11
-61.573013595612551
 21
-7.698343403128149
  0
LINE
  8
254
  6
CONTINUOUS
 62
     7
 10
-61.573013595612551
 20
-7.698343403128149
 11
-61.260849288971926
 21
-7.7858220408234615
  0
LINE
  8
254
  6
CONTINUOUS
 62
     7
 10
-61.260849288971926
 20
-7.7858220408234615
 11
-60.932556442292238
 21
-7.830972797659399
  0
LINE
  8
254
  6
CONTINUOUS
 62
     7
 10
-60.932556442292238
 20
-7.830972797659399
 11
-60.590610794098879
 21
-7.8334904978547115
  0
LINE
  8
254
  6
CONTINUOUS
 62
     7
 10
-60.590610794098879
 20
-7.8334904978547115
 11
-60.237613967927004
 21
-7.7933064768586178
  0
LINE
  8
254
  6
CONTINUOUS
 62
     7
 10
-60.237613967927004
 20
-7.7933064768586178
 11
-59.87626295474341
 21
-7.710733539846899
  0
LINE
  8
254
  6
CONTINUOUS
 62
     7
 10
-59.87626295474341
 20
-7.710733539846899
 11
-59.509308151276613
 21
-7.586435444143774
  0
LINE
  8
254
  6
CONTINUOUS
 62
     7
 10
-59.509308151276613
 20
-7.586435444143774
 11
-59.139526657135988
 21
-7.4213200876984615
  0
LINE
  8
254
  6
CONTINUOUS
 62
     7
 10
-59.139526657135988
 20
-7.4213200876984615
 11
-58.769760421784426
 21
-7.216653950003149
  0
LINE
  8
254
  6
CONTINUOUS
 62
     7
 10
-58.769760421784426
 20
-7.216653950003149
 11
-58.402805618317629
 21
-6.974008686331274
  0
LINE
  8
254
  6
CONTINUOUS
 62
     7
 10
-58.402805618317629
 20
-6.974008686331274
 11
-58.041454605134035
 21
-6.695230610159399
  0
LINE
  8
254
  6
CONTINUOUS
 62
     7
 10
-58.041454605134035
 20
-6.695230610159399
 11
-57.68845777896216
 21
-6.3824178049836178
  0
LINE
  8
254
  6
CONTINUOUS
 62
     7
 10
-57.68845777896216
 20
-6.3824178049836178
 11
-57.346512130768801
 21
-6.0379811594758053
  0
LINE
  8
254
  6
CONTINUOUS
 62
     7
 10
-57.346512130768801
 20
-6.0379811594758053
 11
-57.018219284089113
 21
-5.6645070383820553
  0
LINE
  8
254
  6
CONTINUOUS
 62
     7
 10
-57.018219284089113
 20
-5.6645070383820553
 11
-56.706058792145754
 21
-5.264871723440649
  0
LINE
  8
254
  6
CONTINUOUS
 62
     7
 10
-56.706058792145754
 20
-5.264871723440649
 11
-56.412411026032473
 21
-4.8420888254914303
  0
LINE
  8
254
  6
CONTINUOUS
 62
     7
 10
-56.412411026032473
 20
-4.8420888254914303
 11
-56.139541915925051
 21
-4.3994008372101803
  0
LINE
  8
254
  6
CONTINUOUS
 62
     7
 10
-56.139541915925051
 20
-4.3994008372101803
 11
-55.889480880768801
 21
-3.9401723215851803
  0
LINE
  8
254
  6
CONTINUOUS
 62
     7
 10
-55.889480880768801
 20
-3.9401723215851803
 11
-55.664169601471926
 21
-3.467874653128149
  0
LINE
  8
254
  6
CONTINUOUS
 62
     7
 10
-55.664169601471926
 20
-3.467874653128149
 11
-55.465301803620363
 21
-2.986124164846899
  0
LINE
  8
254
  6
CONTINUOUS
 62
     7
 10
-55.465301803620363
 20
-2.986124164846899
 11
-55.294403366120363
 21
-2.4985829661164303
  0
LINE
  8
254
  6
CONTINUOUS
 62
     7
 10
-55.294403366120363
 20
-2.4985829661164303
 11
-55.152756027253176
 21
-2.0089589426789303
  0
LINE
  8
254
  6
CONTINUOUS
 62
     7
 10
-55.152756027253176
 20
-2.0089589426789303
 11
-55.041458419831301
 21
-1.521005756643774
  0
LINE
  8
254
  6
CONTINUOUS
 62
     7
 10
-55.041458419831301
 20
-1.521005756643774
 11
-54.961349777253176
 21
-1.0383778879914303
  0
LINE
  8
254
  6
CONTINUOUS
 62
     7
 10
-54.961349777253176
 20
-1.0383778879914303
 11
-54.913040451081301
 21
-0.564798481253149
  0
LINE
  8
254
  6
CONTINUOUS
 62
     7
 10
-54.913040451081301
 20
-0.564798481253149
 11
-54.896896652253176
 21
-0.1038495371613522
  0
LINE
  8
0
  6
CONTINUOUS
 62
     7
 10
-56.751606277497316
 20
 3.2607783009734135
 11
-56.978107742341066
 21
 3.4017161061491947
  0
LINE
  8
0
  6
CONTINUOUS
 62
     7
 10
-56.978107742341066
 20
 3.4017161061491947
 11
-57.271728805573488
 21
 3.5308512379851322
  0
LINE
  8
0
  6
CONTINUOUS
 62
     7
 10
-57.271728805573488
 20
 3.5308512379851322
 11
-57.583893112214113
 21
 3.6183451344695072
  0
LINE
  8
0
  6
CONTINUOUS
 62
     7
 10
-57.583893112214113
 20
 3.6183451344695072
 11
-57.912201217682863
 21
 3.6634997060027104
  0
LINE
  8
0
  6
CONTINUOUS
 62
     7
 10
-57.912201217682863
 20
 3.6634997060027104
 11
-58.254146865876223
 21
 3.6659983327116947
  0
LINE
  8
0
  6
CONTINUOUS
 62
     7
 10
-58.254146865876223
 20
 3.6659983327116947
 11
-58.607132247956301
 21
 3.625814311715601
  0
LINE
  8
0
  6
CONTINUOUS
 62
     7
 10
-58.607132247956301
 20
 3.625814311715601
 11
-58.968490890534426
 21
 3.5432604481902104
  0
LINE
  8
0
  6
CONTINUOUS
 62
     7
 10
-58.968490890534426
 20
 3.5432604481902104
 11
-59.335449508698488
 21
 3.4189432790007572
  0
LINE
  8
0
  6
CONTINUOUS
 62
     7
 10
-59.335449508698488
 20
 3.4189432790007572
 11
-59.705215744050051
 21
 3.2538279225554447
  0
LINE
  8
0
  6
CONTINUOUS
 62
     7
 10
-59.705215744050051
 20
 3.2538279225554447
 11
-60.074978164704348
 21
 3.0491732289519291
  0
LINE
  8
0
  6
CONTINUOUS
 62
     7
 10
-60.074978164704348
 20
 3.0491732289519291
 11
-60.441940597565676
 21
 2.8065279652800541
  0
LINE
  8
0
  6
CONTINUOUS
 62
     7
 10
-60.441940597565676
 20
 2.8065279652800541
 11
-60.803280166657473
 21
 2.5277384450163822
  0
LINE
  8
0
  6
CONTINUOUS
 62
     7
 10
-60.803280166657473
 20
 2.5277384450163822
 11
-61.156280807526613
 21
 2.2149294545378666
  0
LINE
  8
0
  6
CONTINUOUS
 62
     7
 10
-61.156280807526613
 20
 2.2149294545378666
 11
-61.498230270417238
 21
 1.870473735543726
  0
LINE
  8
0
  6
CONTINUOUS
 62
     7
 10
-61.498230270417238
 20
 1.870473735543726
 11
-61.826538375885988
 21
 1.4970148732390385
  0
LINE
  8
0
  6
CONTINUOUS
 62
     7
 10
-61.826538375885988
 20
 1.4970148732390385
 11
-62.138687423737551
 21
 1.0973833729948979
  0
LINE
  8
0
  6
CONTINUOUS
 62
     7
 10
-62.138687423737551
 20
 1.0973833729948979
 11
-62.432327560456301
 21
 0.6746004750456791
  0
LINE
  8
0
  6
CONTINUOUS
 62
     7
 10
-62.432327560456301
 20
 0.6746004750456791
 11
-62.705215744050051
 21
 0.2319124867644291
  0
LINE
  8
0
  6
CONTINUOUS
 62
     7
 10
-62.705215744050051
 20
 0.2319124867644291
 11
-62.955261520417238
 21
-0.2273312876496334
  0
LINE
  8
0
  6
CONTINUOUS
 62
     7
 10
-62.955261520417238
 20
-0.2273312876496334
 11
-63.180588058503176
 21
-0.6996175120148678
  0
LINE
  8
0
  6
CONTINUOUS
 62
     7
 10
-63.180588058503176
 20
-0.6996175120148678
 11
-63.379455856354738
 21
-1.1813527415070553
  0
LINE
  8
0
  6
CONTINUOUS
 62
     7
 10
-63.379455856354738
 20
-1.1813527415070553
 11
-63.550354293854738
 21
-1.6689015696320553
  0
LINE
  8
0
  6
CONTINUOUS
 62
     7
 10
-63.550354293854738
 20
-1.6689015696320553
 11
-63.692001632721926
 21
-2.158517963675024
  0
LINE
  8
0
  6
CONTINUOUS
 62
     7
 10
-63.692001632721926
 20
-2.158517963675024
 11
-63.803299240143801
 21
-2.6465016672883053
  0
LINE
  8
0
  6
CONTINUOUS
 62
     7
 10
-63.803299240143801
 20
-2.6465016672883053
 11
-63.883407882721926
 21
-3.1291142771515865
  0
LINE
  8
0
  6
CONTINUOUS
 62
     7
 10
-63.883407882721926
 20
-3.1291142771515865
 11
-63.931717208893801
 21
-3.602701313284399
  0
LINE
  8
0
  6
CONTINUOUS
 62
     7
 10
-63.931717208893801
 20
-3.602701313284399
 11
-63.947861007721926
 21
-4.0636540720734615
  0
LINE
  8
0
  6
CONTINUOUS
 62
     7
 10
-63.947861007721926
 20
-4.0636540720734615
 11
-63.931717208893801
 21
-4.5084401438508053
  0
LINE
  8
0
  6
CONTINUOUS
 62
     7
 10
-63.931717208893801
 20
-4.5084401438508053
 11
-63.883407882721926
 21
-4.9337102244172115
  0
LINE
  8
0
  6
CONTINUOUS
 62
     7
 10
-63.883407882721926
 20
-4.9337102244172115
 11
-63.803299240143801
 21
-5.3362294504914303
  0
LINE
  8
0
  6
CONTINUOUS
 62
     7
 10
-63.803299240143801
 20
-5.3362294504914303
 11
-63.692001632721926
 21
-5.712900287893774
  0
LINE
  8
0
  6
CONTINUOUS
 62
     7
 10
-63.692001632721926
 20
-5.712900287893774
 11
-63.550354293854738
 21
-6.0608846018586178
  0
LINE
  8
0
  6
CONTINUOUS
 62
     7
 10
-63.550354293854738
 20
-6.0608846018586178
 11
-63.379455856354738
 21
-6.377512104300024
  0
LINE
  8
0
  6
CONTINUOUS
 62
     7
 10
-63.379455856354738
 20
-6.377512104300024
 11
-63.180588058503176
 21
-6.6603871653351803
  0
LINE
  8
0
  6
CONTINUOUS
 62
     7
 10
-63.180588058503176
 20
-6.6603871653351803
 11
-62.955261520417238
 21
-6.9073659251008053
  0
LINE
  8
0
  6
CONTINUOUS
 62
     7
 10
-62.955261520417238
 20
-6.9073659251008053
 11
-62.705215744050051
 21
-7.1165639231476803
  0
LINE
  8
0
  6
CONTINUOUS
 62
     7
 10
-62.705215744050051
 20
-7.1165639231476803
 11
-62.432327560456301
 21
-7.2863637278351803
  0
LINE
  8
0
  6
CONTINUOUS
 62
     7
 10
-62.432327560456301
 20
-7.2863637278351803
 11
-62.138702682526613
 21
-7.4154988596711178
  0
LINE
  8
0
  6
CONTINUOUS
 62
     7
 10
-62.138702682526613
 20
-7.4154988596711178
 11
-62.093124679596926
 21
-7.4282780955109615
  0
LINE
  8
0
  6
CONTINUOUS
 62
     7
 10
-57.760666183503176
 20
-1.6195851633820553
 11
-58.167770675690676
 21
-1.8231374094758053
  0
LINE
  8
0
  6
CONTINUOUS
 62
     7
 10
-59.174896530182863
 20
 0.7044008900847416
 11
-59.174896530182863
 21
 0.2058161427702885
  0
LINE
  8
0
  6
CONTINUOUS
 62
     7
 10
-59.174877456696535
 20
-3.5601445505890865
 11
-59.174877456696535
 21
-4.0587407419953365
  0
LINE
  8
0
  6
CONTINUOUS
 62
     7
 10
-57.19498854068091
 20
-0.6033803293976803
 11
-57.602081588776613
 21
-0.806924946096899
  0
LINE
  8
0
  6
CONTINUOUS
 62
     7
 10
-57.19498854068091
 20
-1.902414448050024
 11
-57.602081588776613
 21
-2.105966694143774
  0
LINE
  8
0
  6
CONTINUOUS
 62
     7
 10
-59.669861129792238
 20
-0.1087704966340084
 11
-59.669861129792238
 21
-0.607339985159399
  0
LINE
  8
0
  6
CONTINUOUS
 62
     7
 10
-58.609207443268801
 20
 0.421560161324976
 11
-58.609207443268801
 21
-0.0770245859894771
  0
LINE
  8
0
  6
CONTINUOUS
 62
     7
 10
-58.609207443268801
 20
-3.8429738352570553
 11
-58.609207443268801
 21
-4.3415700266633053
  0
LINE
  8
0
  6
CONTINUOUS
 62
     7
 10
-59.669861129792238
 20
-4.3733083079133053
 11
-59.669861129792238
 21
-4.8719044993195553
  0
LINE
  8
0
  6
CONTINUOUS
 62
     7
 10
-59.174896530182863
 20
 0.2058161427702885
 11
-58.609207443268801
 21
-0.0770245859894771
  0
LINE
  8
0
  6
CONTINUOUS
 62
     7
 10
-58.167770675690676
 20
-0.5240956614289303
 11
-57.602081588776613
 21
-0.806924946096899
  0
LINE
  8
0
  6
CONTINUOUS
 62
     7
 10
-58.167770675690676
 20
-1.8231374094758053
 11
-57.602081588776613
 21
-2.105966694143774
  0
LINE
  8
0
  6
CONTINUOUS
 62
     7
 10
-59.174877456696535
 20
-3.5601445505890865
 11
-58.609207443268801
 21
-3.8429738352570553
  0
LINE
  8
254
  6
CONTINUOUS
 62
     7
 10
-59.174877456696535
 20
-3.5601445505890865
 11
-59.042911819489504
 21
-3.430368549612524
  0
LINE
  8
254
  6
CONTINUOUS
 62
     7
 10
-59.042911819489504
 20
-3.430368549612524
 11
-58.915966323884035
 21
-3.2892934153351803
  0
LINE
  8
254
  6
CONTINUOUS
 62
     7
 10
-58.915966323884035
 20
-3.2892934153351803
 11
-58.795028976471926
 21
-3.1379414866242428
  0
LINE
  8
254
  6
CONTINUOUS
 62
     7
 10
-58.795028976471926
 20
-3.1379414866242428
 11
-58.681030563385988
 21
-2.977518207815649
  0
LINE
  8
254
  6
CONTINUOUS
 62
     7
 10
-58.681030563385988
 20
-2.977518207815649
 11
-58.574814132721926
 21
-2.8091908762726803
  0
LINE
  8
254
  6
CONTINUOUS
 62
     7
 10
-58.574814132721926
 20
-2.8091908762726803
 11
-58.477203659089113
 21
-2.6342717478547115
  0
LINE
  8
254
  6
CONTINUOUS
 62
     7
 10
-58.477203659089113
 20
-2.6342717478547115
 11
-58.388946823151613
 21
-2.454080707815649
  0
LINE
  8
254
  6
CONTINUOUS
 62
     7
 10
-58.388946823151613
 20
-2.454080707815649
 11
-58.310699752839113
 21
-2.2700139353547115
  0
LINE
  8
254
  6
CONTINUOUS
 62
     7
 10
-58.310699752839113
 20
-2.2700139353547115
 11
-58.243072799714113
 21
-2.083444721487524
  0
LINE
  8
254
  6
CONTINUOUS
 62
     7
 10
-58.243072799714113
 20
-2.083444721487524
 11
-58.186569503815676
 21
-1.8957997629914303
  0
LINE
  8
254
  6
CONTINUOUS
 62
     7
 10
-58.186569503815676
 20
-1.8957997629914303
 11
-58.167770675690676
 21
-1.8231068918976803
  0
LINE
  8
254
  6
CONTINUOUS
 62
     7
 10
-57.19498854068091
 20
-1.902414448050024
 11
-57.148769668610598
 21
-1.8768254587922115
  0
LINE
  8
254
  6
CONTINUOUS
 62
     7
 10
-57.148769668610598
 20
-1.8768254587922115
 11
-57.102901748688723
 21
-1.8464986155304928
  0
LINE
  8
254
  6
CONTINUOUS
 62
     7
 10
-57.102901748688723
 20
-1.8464986155304928
 11
-57.05772047427466
 21
-1.8116475413117428
  0
LINE
  8
254
  6
CONTINUOUS
 62
     7
 10
-57.05772047427466
 20
-1.8116475413117428
 11
-57.013611129792238
 21
-1.7725468943390865
  0
LINE
  8
254
  6
CONTINUOUS
 62
     7
 10
-57.013611129792238
 20
-1.7725468943390865
 11
-56.970859817536379
 21
-1.7294942209992428
  0
LINE
  8
254
  6
CONTINUOUS
 62
     7
 10
-56.970859817536379
 20
-1.7294942209992428
 11
-56.929825119050051
 21
-1.6828252146515865
  0
LINE
  8
254
  6
CONTINUOUS
 62
     7
 10
-56.929825119050051
 20
-1.6828252146515865
 11
-56.890808395417238
 21
-1.6328450510773678
  0
LINE
  8
254
  6
CONTINUOUS
 62
     7
 10
-56.890808395417238
 20
-1.6328450510773678
 11
-56.854099563630129
 21
-1.5800191233429928
  0
LINE
  8
254
  6
CONTINUOUS
 62
     7
 10
-56.854099563630129
 20
-1.5800191233429928
 11
-56.819992355378176
 21
-1.524667866018774
  0
LINE
  8
254
  6
CONTINUOUS
 62
     7
 10
-56.819992355378176
 20
-1.524667866018774
 11
-56.788730911286379
 21
-1.4672719309601803
  0
LINE
  8
254
  6
CONTINUOUS
 62
     7
 10
-56.788730911286379
 20
-1.4672719309601803
 11
-56.760578445466066
 21
-1.4082204172883053
  0
LINE
  8
254
  6
CONTINUOUS
 62
     7
 10
-56.760578445466066
 20
-1.4082204172883053
 11
-56.735702804596926
 21
-1.3480244944367428
  0
LINE
  8
254
  6
CONTINUOUS
 62
     7
 10
-56.735702804596926
 20
-1.3480244944367428
 11
-56.71433668521216
 21
-1.287058002737524
  0
LINE
  8
254
  6
CONTINUOUS
 62
     7
 10
-56.71433668521216
 20
-1.287058002737524
 11
-56.69663648989966
 21
-1.2258549998078365
  0
LINE
  8
254
  6
CONTINUOUS
 62
     7
 10
-56.69663648989966
 20
-1.2258549998078365
 11
-56.682735733063723
 21
-1.1648732493195553
  0
LINE
  8
254
  6
CONTINUOUS
 62
     7
 10
-56.682735733063723
 20
-1.1648732493195553
 11
-56.672714523346926
 21
-1.1045399973664303
  0
LINE
  8
254
  6
CONTINUOUS
 62
     7
 10
-56.672714523346926
 20
-1.1045399973664303
 11
-56.666672042878176
 21
-1.0453358958039303
  0
LINE
  8
254
  6
CONTINUOUS
 62
     7
 10
-56.666672042878176
 20
-1.0453358958039303
 11
-56.664657882721926
 21
-0.9877263376984615
  0
LINE
  8
254
  6
CONTINUOUS
 62
     7
 10
-56.664657882721926
 20
-0.9877263376984615
 11
-56.666672042878176
 21
-0.9321233103547115
  0
LINE
  8
254
  6
CONTINUOUS
 62
     7
 10
-56.666672042878176
 20
-0.9321233103547115
 11
-56.672714523346926
 21
-0.8789693186554928
  0
LINE
  8
254
  6
CONTINUOUS
 62
     7
 10
-56.672714523346926
 20
-0.8789693186554928
 11
-56.682735733063723
 21
-0.8286610911164303
  0
LINE
  8
254
  6
CONTINUOUS
 62
     7
 10
-56.682735733063723
 20
-0.8286610911164303
 11
-56.69663648989966
 21
-0.7815724680695553
  0
LINE
  8
254
  6
CONTINUOUS
 62
     7
 10
-56.69663648989966
 20
-0.7815724680695553
 11
-56.71433668521216
 21
-0.738077289846899
  0
LINE
  8
254
  6
CONTINUOUS
 62
     7
 10
-56.71433668521216
 20
-0.738077289846899
 11
-56.735702804596926
 21
-0.6985036204133053
  0
LINE
  8
254
  6
CONTINUOUS
 62
     7
 10
-56.735702804596926
 20
-0.6985036204133053
 11
-56.760578445466066
 21
-0.6631337473664303
  0
LINE
  8
254
  6
CONTINUOUS
 62
     7
 10
-56.760578445466066
 20
-0.6631337473664303
 11
-56.788730911286379
 21
-0.6322575876984615
  0
LINE
  8
254
  6
CONTINUOUS
 62
     7
 10
-56.788730911286379
 20
-0.6322575876984615
 11
-56.819992355378176
 21
-0.6061269114289303
  0
LINE
  8
254
  6
CONTINUOUS
 62
     7
 10
-56.819992355378176
 20
-0.6061269114289303
 11
-56.854099563630129
 21
-0.5848866770539303
  0
LINE
  8
254
  6
CONTINUOUS
 62
     7
 10
-56.854099563630129
 20
-0.5848866770539303
 11
-56.890808395417238
 21
-0.5687505076203365
  0
LINE
  8
254
  6
CONTINUOUS
 62
     7
 10
-56.890808395417238
 20
-0.5687505076203365
 11
-56.929825119050051
 21
-0.5578023264679928
  0
LINE
  8
254
  6
CONTINUOUS
 62
     7
 10
-56.929825119050051
 20
-0.5578023264679928
 11
-56.970859817536379
 21
-0.552164203909399
  0
LINE
  8
254
  6
CONTINUOUS
 62
     7
 10
-56.970859817536379
 20
-0.552164203909399
 11
-57.013611129792238
 21
-0.5518437693390865
  0
LINE
  8
254
  6
CONTINUOUS
 62
     7
 10
-57.013611129792238
 20
-0.5518437693390865
 11
-57.05772047427466
 21
-0.5568791697297115
  0
LINE
  8
254
  6
CONTINUOUS
 62
     7
 10
-57.05772047427466
 20
-0.5568791697297115
 11
-57.102901748688723
 21
-0.5672017405304928
  0
LINE
  8
254
  6
CONTINUOUS
 62
     7
 10
-57.102901748688723
 20
-0.5672017405304928
 11
-57.148769668610598
 21
-0.5827351877961178
  0
LINE
  8
254
  6
CONTINUOUS
 62
     7
 10
-57.148769668610598
 20
-0.5827351877961178
 11
-57.19498854068091
 21
-0.603372700003149
  0
LINE
  8
254
  6
CONTINUOUS
 62
     7
 10
-57.19498854068091
 20
-0.603372700003149
 11
-57.193978540680909
 21
-0.603372700003149
  0
LINE
  8
254
  6
CONTINUOUS
 62
     7
 10
-58.609207443268801
 20
 0.4215716054167729
 11
-58.611221603425051
 21
 0.477163188668726
  0
LINE
  8
254
  6
CONTINUOUS
 62
     7
 10
-58.611221603425051
 20
 0.477163188668726
 11
-58.617264083893801
 21
 0.5303133656706791
  0
LINE
  8
254
  6
CONTINUOUS
 62
     7
 10
-58.617264083893801
 20
 0.5303133656706791
 11
-58.627273849518801
 21
 0.5806368519988041
  0
LINE
  8
254
  6
CONTINUOUS
 62
     7
 10
-58.627273849518801
 20
 0.5806368519988041
 11
-58.641189865143801
 21
 0.6277254750456791
  0
LINE
  8
254
  6
CONTINUOUS
 62
     7
 10
-58.641189865143801
 20
 0.6277254750456791
 11
-58.658890060456301
 21
 0.6712168385710697
  0
LINE
  8
254
  6
CONTINUOUS
 62
     7
 10
-58.658890060456301
 20
 0.6712168385710697
 11
-58.680256179841066
 21
 0.7107981373991947
  0
LINE
  8
254
  6
CONTINUOUS
 62
     7
 10
-58.680256179841066
 20
 0.7107981373991947
 11
-58.705108932526613
 21
 0.7461603810515385
  0
LINE
  8
254
  6
CONTINUOUS
 62
     7
 10
-58.705108932526613
 20
 0.7461603810515385
 11
-58.733272842438723
 21
 0.7770365407195072
  0
LINE
  8
254
  6
CONTINUOUS
 62
     7
 10
-58.733272842438723
 20
 0.7770365407195072
 11
-58.764541915925051
 21
 0.8031710316863041
  0
LINE
  8
254
  6
CONTINUOUS
 62
     7
 10
-58.764541915925051
 20
 0.8031710316863041
 11
-58.798641494782473
 21
 0.8243960072722416
  0
LINE
  8
254
  6
CONTINUOUS
 62
     7
 10
-58.798641494782473
 20
 0.8243960072722416
 11
-58.835346511872316
 21
 0.8405474354948979
  0
LINE
  8
254
  6
CONTINUOUS
 62
     7
 10
-58.835346511872316
 20
 0.8405474354948979
 11
-58.874374679596926
 21
 0.8514803578581791
  0
LINE
  8
254
  6
CONTINUOUS
 62
     7
 10
-58.874374679596926
 20
 0.8514803578581791
 11
-58.915401748688723
 21
 0.8571184804167729
  0
LINE
  8
254
  6
CONTINUOUS
 62
     7
 10
-58.915401748688723
 20
 0.8571184804167729
 11
-58.958141616852785
 21
 0.8574389149870854
  0
LINE
  8
254
  6
CONTINUOUS
 62
     7
 10
-58.958141616852785
 20
 0.8574389149870854
 11
-59.002273849518801
 21
 0.8524149586882572
  0
LINE
  8
254
  6
CONTINUOUS
 62
     7
 10
-59.002273849518801
 20
 0.8524149586882572
 11
-59.047439865143801
 21
 0.8420962025847416
  0
LINE
  8
254
  6
CONTINUOUS
 62
     7
 10
-59.047439865143801
 20
 0.8420962025847416
 11
-59.093307785065676
 21
 0.8265627553191166
  0
LINE
  8
254
  6
CONTINUOUS
 62
     7
 10
-59.093307785065676
 20
 0.8265627553191166
 11
-59.139526657135988
 21
 0.8059137990202885
  0
LINE
  8
254
  6
CONTINUOUS
 62
     7
 10
-59.139526657135988
 20
 0.8059137990202885
 11
-59.185760787995363
 21
 0.7803324391570072
  0
LINE
  8
254
  6
CONTINUOUS
 62
     7
 10
-59.185760787995363
 20
 0.7803324391570072
 11
-59.231628707917238
 21
 0.7500055958952885
  0
LINE
  8
254
  6
CONTINUOUS
 62
     7
 10
-59.231628707917238
 20
 0.7500055958952885
 11
-59.276794723542238
 21
 0.7151545216765385
  0
LINE
  8
254
  6
CONTINUOUS
 62
     7
 10
-59.276794723542238
 20
 0.7151545216765385
 11
-59.320926956208254
 21
 0.6760615040984135
  0
LINE
  8
254
  6
CONTINUOUS
 62
     7
 10
-59.320926956208254
 20
 0.6760615040984135
 11
-59.363666824372316
 21
 0.6329935719695072
  0
LINE
  8
254
  6
CONTINUOUS
 62
     7
 10
-59.363666824372316
 20
 0.6329935719695072
 11
-59.404693893464113
 21
 0.5863131215300541
  0
LINE
  8
254
  6
CONTINUOUS
 62
     7
 10
-59.404693893464113
 20
 0.5863131215300541
 11
-59.443722061188723
 21
 0.5363634755339604
  0
LINE
  8
254
  6
CONTINUOUS
 62
     7
 10
-59.443722061188723
 20
 0.5363634755339604
 11
-59.480427078278566
 21
 0.4835184743132572
  0
LINE
  8
254
  6
CONTINUOUS
 62
     7
 10
-59.480427078278566
 20
 0.4835184743132572
 11
-59.514526657135988
 21
 0.4281748463835697
  0
LINE
  8
254
  6
CONTINUOUS
 62
     7
 10
-59.514526657135988
 20
 0.4281748463835697
 11
-59.545795730622316
 21
 0.370778911324976
  0
LINE
  8
254
  6
CONTINUOUS
 62
     7
 10
-59.545795730622316
 20
 0.370778911324976
 11
-59.573959640534426
 21
 0.3117388417448979
  0
LINE
  8
254
  6
CONTINUOUS
 62
     7
 10
-59.573959640534426
 20
 0.3117388417448979
 11
-59.598812393219973
 21
 0.2515238454070072
  0
LINE
  8
254
  6
CONTINUOUS
 62
     7
 10
-59.598812393219973
 20
 0.2515238454070072
 11
-59.620178512604738
 21
 0.1905764271941166
  0
LINE
  8
254
  6
CONTINUOUS
 62
     7
 10
-59.620178512604738
 20
 0.1905764271941166
 11
-59.637878707917238
 21
 0.1293734242644291
  0
LINE
  8
254
  6
CONTINUOUS
 62
     7
 10
-59.637878707917238
 20
 0.1293734242644291
 11
-59.651794723542238
 21
 0.0683764149870854
  0
LINE
  8
254
  6
CONTINUOUS
 62
     7
 10
-59.651794723542238
 20
 0.0683764149870854
 11
-59.661804489167238
 21
 0.008046977731226
  0
LINE
  8
254
  6
CONTINUOUS
 62
     7
 10
-59.661804489167238
 20
 0.008046977731226
 11
-59.667846969635988
 21
-0.0511456797394771
  0
LINE
  8
254
  6
CONTINUOUS
 62
     7
 10
-59.667846969635988
 20
-0.0511456797394771
 11
-59.669861129792238
 21
-0.1087704966340084
  0
LINE
  8
254
  6
CONTINUOUS
 62
     7
 10
-59.669861129792238
 20
-0.1087704966340084
 11
-59.668851129792237
 21
-0.1087704966340084
  0
LINE
  8
254
  6
CONTINUOUS
 62
     7
 10
-59.669861129792238
 20
-4.8719044993195553
 11
-59.667846969635988
 21
-4.9275075266633053
  0
LINE
  8
254
  6
CONTINUOUS
 62
     7
 10
-59.667846969635988
 20
-4.9275075266633053
 11
-59.661804489167238
 21
-4.980661518362524
  0
LINE
  8
254
  6
CONTINUOUS
 62
     7
 10
-59.661804489167238
 20
-4.980661518362524
 11
-59.651794723542238
 21
-5.0309773752961178
  0
LINE
  8
254
  6
CONTINUOUS
 62
     7
 10
-59.651794723542238
 20
-5.0309773752961178
 11
-59.637878707917238
 21
-5.078073627737524
  0
LINE
  8
254
  6
CONTINUOUS
 62
     7
 10
-59.637878707917238
 20
-5.078073627737524
 11
-59.620178512604738
 21
-5.121561176565649
  0
LINE
  8
254
  6
CONTINUOUS
 62
     7
 10
-59.620178512604738
 20
-5.121561176565649
 11
-59.598812393219973
 21
-5.161142475393774
  0
LINE
  8
254
  6
CONTINUOUS
 62
     7
 10
-59.598812393219973
 20
-5.161142475393774
 11
-59.573959640534426
 21
-5.1965047190461178
  0
LINE
  8
254
  6
CONTINUOUS
 62
     7
 10
-59.573959640534426
 20
-5.1965047190461178
 11
-59.545795730622316
 21
-5.227365619925024
  0
LINE
  8
254
  6
CONTINUOUS
 62
     7
 10
-59.545795730622316
 20
-5.227365619925024
 11
-59.514526657135988
 21
-5.253519184378149
  0
LINE
  8
254
  6
CONTINUOUS
 62
     7
 10
-59.514526657135988
 20
-5.253519184378149
 11
-59.480427078278566
 21
-5.2747441599640865
  0
LINE
  8
254
  6
CONTINUOUS
 62
     7
 10
-59.480427078278566
 20
-5.2747441599640865
 11
-59.443722061188723
 21
-5.2908879587922115
  0
LINE
  8
254
  6
CONTINUOUS
 62
     7
 10
-59.443722061188723
 20
-5.2908879587922115
 11
-59.404693893464113
 21
-5.301828510550024
  0
LINE
  8
254
  6
CONTINUOUS
 62
     7
 10
-59.404693893464113
 20
-5.301828510550024
 11
-59.363666824372316
 21
-5.307474262503149
  0
LINE
  8
254
  6
CONTINUOUS
 62
     7
 10
-59.363666824372316
 20
-5.307474262503149
 11
-59.320926956208254
 21
-5.3077870676789303
  0
LINE
  8
254
  6
CONTINUOUS
 62
     7
 10
-59.320926956208254
 20
-5.3077870676789303
 11
-59.276794723542238
 21
-5.302744037893774
  0
LINE
  8
254
  6
CONTINUOUS
 62
     7
 10
-59.276794723542238
 20
-5.302744037893774
 11
-59.231628707917238
 21
-5.2924443552765865
  0
LINE
  8
254
  6
CONTINUOUS
 62
     7
 10
-59.231628707917238
 20
-5.2924443552765865
 11
-59.185760787995363
 21
-5.276895649221899
  0
LINE
  8
254
  6
CONTINUOUS
 62
     7
 10
-59.185760787995363
 20
-5.276895649221899
 11
-59.139526657135988
 21
-5.2562733958039303
  0
LINE
  8
254
  6
CONTINUOUS
 62
     7
 10
-59.139526657135988
 20
-5.2562733958039303
 11
-59.093307785065676
 21
-5.2306767771515865
  0
LINE
  8
254
  6
CONTINUOUS
 62
     7
 10
-59.093307785065676
 20
-5.2306767771515865
 11
-59.047439865143801
 21
-5.2003499338898678
  0
LINE
  8
254
  6
CONTINUOUS
 62
     7
 10
-59.047439865143801
 20
-5.2003499338898678
 11
-59.002273849518801
 21
-5.1654836008820553
  0
LINE
  8
254
  6
CONTINUOUS
 62
     7
 10
-59.002273849518801
 20
-5.1654836008820553
 11
-58.958141616852785
 21
-5.1263905833039303
  0
LINE
  8
254
  6
CONTINUOUS
 62
     7
 10
-58.958141616852785
 20
-5.1263905833039303
 11
-58.915401748688723
 21
-5.0833379099640865
  0
LINE
  8
254
  6
CONTINUOUS
 62
     7
 10
-58.915401748688723
 20
-5.0833379099640865
 11
-58.874374679596926
 21
-5.036661274221899
  0
LINE
  8
254
  6
CONTINUOUS
 62
     7
 10
-58.874374679596926
 20
-5.036661274221899
 11
-58.835346511872316
 21
-4.9867116282258053
  0
LINE
  8
254
  6
CONTINUOUS
 62
     7
 10
-58.835346511872316
 20
-4.9867116282258053
 11
-58.798641494782473
 21
-4.933847553518774
  0
LINE
  8
254
  6
CONTINUOUS
 62
     7
 10
-58.798641494782473
 20
-4.933847553518774
 11
-58.764541915925051
 21
-4.878519184378149
  0
LINE
  8
254
  6
CONTINUOUS
 62
     7
 10
-58.764541915925051
 20
-4.878519184378149
 11
-58.733272842438723
 21
-4.8211232493195553
  0
LINE
  8
254
  6
CONTINUOUS
 62
     7
 10
-58.733272842438723
 20
-4.8211232493195553
 11
-58.705108932526613
 21
-4.7620869944367428
  0
LINE
  8
254
  6
CONTINUOUS
 62
     7
 10
-58.705108932526613
 20
-4.7620869944367428
 11
-58.680256179841066
 21
-4.701852924612524
  0
LINE
  8
254
  6
CONTINUOUS
 62
     7
 10
-58.680256179841066
 20
-4.701852924612524
 11
-58.658890060456301
 21
-4.640909321096899
  0
LINE
  8
254
  6
CONTINUOUS
 62
     7
 10
-58.658890060456301
 20
-4.640909321096899
 11
-58.641189865143801
 21
-4.5797063181672115
  0
LINE
  8
254
  6
CONTINUOUS
 62
     7
 10
-58.641189865143801
 20
-4.5797063181672115
 11
-58.627273849518801
 21
-4.5187245676789303
  0
LINE
  8
254
  6
CONTINUOUS
 62
     7
 10
-58.627273849518801
 20
-4.5187245676789303
 11
-58.617264083893801
 21
-4.4583913157258053
  0
LINE
  8
254
  6
CONTINUOUS
 62
     7
 10
-58.617264083893801
 20
-4.4583913157258053
 11
-58.611221603425051
 21
-4.3992024729523678
  0
LINE
  8
254
  6
CONTINUOUS
 62
     7
 10
-58.611221603425051
 20
-4.3992024729523678
 11
-58.609207443268801
 21
-4.3415700266633053
  0
LINE
  8
254
  6
CONTINUOUS
 62
     7
 10
-58.609207443268801
 20
-4.3415700266633053
 11
-58.6081974432688
 21
-4.3415700266633053
  0
LINE
  8
254
  6
CONTINUOUS
 62
     7
 10
-58.609207443268801
 20
-3.8429738352570553
 11
-58.477222732575441
 21
-3.7132283518586178
  0
LINE
  8
254
  6
CONTINUOUS
 62
     7
 10
-58.477222732575441
 20
-3.7132283518586178
 11
-58.350277236969973
 21
-3.5721150706086178
  0
LINE
  8
254
  6
CONTINUOUS
 62
     7
 10
-58.350277236969973
 20
-3.5721150706086178
 11
-58.22935133364966
 21
-3.420786030081274
  0
LINE
  8
254
  6
CONTINUOUS
 62
     7
 10
-58.22935133364966
 20
-3.420786030081274
 11
-58.115341476471926
 21
-3.2603474924836178
  0
LINE
  8
254
  6
CONTINUOUS
 62
     7
 10
-58.115341476471926
 20
-3.2603474924836178
 11
-58.00913648989966
 21
-3.0920277903351803
  0
LINE
  8
254
  6
CONTINUOUS
 62
     7
 10
-58.00913648989966
 20
-3.0920277903351803
 11
-57.911533645661379
 21
-2.9171086619172115
  0
LINE
  8
254
  6
CONTINUOUS
 62
     7
 10
-57.911533645661379
 20
-2.9171086619172115
 11
-57.823272995026613
 21
-2.7369405100617428
  0
LINE
  8
254
  6
CONTINUOUS
 62
     7
 10
-57.823272995026613
 20
-2.7369405100617428
 11
-57.745029739411379
 21
-2.5528584788117428
  0
LINE
  8
254
  6
CONTINUOUS
 62
     7
 10
-57.745029739411379
 20
-2.5528584788117428
 11
-57.677398971589113
 21
-2.366281635550024
  0
LINE
  8
254
  6
CONTINUOUS
 62
     7
 10
-57.677398971589113
 20
-2.366281635550024
 11
-57.620880416901613
 21
-2.1786366770539303
  0
LINE
  8
254
  6
CONTINUOUS
 62
     7
 10
-57.620880416901613
 20
-2.1786366770539303
 11
-57.602081588776613
 21
-2.1059514353547115
  0
LINE
  8
254
  6
CONTINUOUS
 62
     7
 10
-57.602081588776613
 20
-0.806924946096899
 11
-57.654159835846926
 21
-0.6713124583039303
  0
LINE
  8
254
  6
CONTINUOUS
 62
     7
 10
-57.654159835846926
 20
-0.6713124583039303
 11
-57.717529586823488
 21
-0.5475331614289303
  0
LINE
  8
254
  6
CONTINUOUS
 62
     7
 10
-57.717529586823488
 20
-0.5475331614289303
 11
-57.791736892731691
 21
-0.4365102122101803
  0
LINE
  8
254
  6
CONTINUOUS
 62
     7
 10
-57.791736892731691
 20
-0.4365102122101803
 11
-57.876190475495363
 21
-0.3391248057160397
  0
LINE
  8
254
  6
CONTINUOUS
 62
     7
 10
-57.876190475495363
 20
-0.3391248057160397
 11
-57.970260910065676
 21
-0.256082660940649
  0
LINE
  8
254
  6
CONTINUOUS
 62
     7
 10
-57.970260910065676
 20
-0.256082660940649
 11
-58.07322340396216
 21
-0.1880208323273678
  0
LINE
  8
254
  6
CONTINUOUS
 62
     7
 10
-58.07322340396216
 20
-0.1880208323273678
 11
-58.184311203034426
 21
-0.1354695627961178
  0
LINE
  8
254
  6
CONTINUOUS
 62
     7
 10
-58.184311203034426
 20
-0.1354695627961178
 11
-58.302673629792238
 21
-0.0988141367707271
  0
LINE
  8
254
  6
CONTINUOUS
 62
     7
 10
-58.302673629792238
 20
-0.0988141367707271
 11
-58.427398971589113
 21
-0.0783444712433834
  0
LINE
  8
254
  6
CONTINUOUS
 62
     7
 10
-58.427398971589113
 20
-0.0783444712433834
 11
-58.557541183503176
 21
-0.0742169688019771
  0
LINE
  8
254
  6
CONTINUOUS
 62
     7
 10
-58.557541183503176
 20
-0.0742169688019771
 11
-58.609207443268801
 21
-0.0770093272004146
  0
LINE
  8
0
  6
CONTINUOUS
 62
     7
 10
-57.760666183503176
 20
-1.6195699045929928
 11
-57.714447311432863
 21
-1.5939885447297115
  0
LINE
  8
0
  6
CONTINUOUS
 62
     7
 10
-57.714447311432863
 20
-1.5939885447297115
 11
-57.668579391510988
 21
-1.5636617014679928
  0
LINE
  8
0
  6
CONTINUOUS
 62
     7
 10
-57.668579391510988
 20
-1.5636617014679928
 11
-57.623409561188723
 21
-1.5288106272492428
  0
LINE
  8
0
  6
CONTINUOUS
 62
     7
 10
-57.623409561188723
 20
-1.5288106272492428
 11
-57.579288772614504
 21
-1.4897023508820553
  0
LINE
  8
0
  6
CONTINUOUS
 62
     7
 10
-57.579288772614504
 20
-1.4897023508820553
 11
-57.536548904450441
 21
-1.446664936331274
  0
LINE
  8
0
  6
CONTINUOUS
 62
     7
 10
-57.536548904450441
 20
-1.446664936331274
 11
-57.495514205964113
 21
-1.399973041800024
  0
LINE
  8
0
  6
CONTINUOUS
 62
     7
 10
-57.495514205964113
 20
-1.399973041800024
 11
-57.456482223542238
 21
-1.3500233958039303
  0
LINE
  8
0
  6
CONTINUOUS
 62
     7
 10
-57.456482223542238
 20
-1.3500233958039303
 11
-57.419788650544191
 21
-1.297159321096899
  0
LINE
  8
0
  6
CONTINUOUS
 62
     7
 10
-57.419788650544191
 20
-1.297159321096899
 11
-57.385681442292238
 21
-1.241830951956274
  0
LINE
  8
0
  6
CONTINUOUS
 62
     7
 10
-57.385681442292238
 20
-1.241830951956274
 11
-57.354419998200441
 21
-1.1844350168976803
  0
LINE
  8
0
  6
CONTINUOUS
 62
     7
 10
-57.354419998200441
 20
-1.1844350168976803
 11
-57.326244644196535
 21
-1.1253987620148678
  0
LINE
  8
0
  6
CONTINUOUS
 62
     7
 10
-57.326244644196535
 20
-1.1253987620148678
 11
-57.301391891510988
 21
-1.065164692190649
  0
LINE
  8
0
  6
CONTINUOUS
 62
     7
 10
-57.301391891510988
 20
-1.065164692190649
 11
-57.280025772126223
 21
-1.004221088675024
  0
LINE
  8
0
  6
CONTINUOUS
 62
     7
 10
-57.280025772126223
 20
-1.004221088675024
 11
-57.262333206208254
 21
-0.9430180857453365
  0
LINE
  8
0
  6
CONTINUOUS
 62
     7
 10
-57.262333206208254
 20
-0.9430180857453365
 11
-57.248413375885988
 21
-0.882028705862524
  0
LINE
  8
0
  6
CONTINUOUS
 62
     7
 10
-57.248413375885988
 20
-0.882028705862524
 11
-57.238403610260988
 21
-0.8217030833039303
  0
LINE
  8
0
  6
CONTINUOUS
 62
     7
 10
-57.238403610260988
 20
-0.8217030833039303
 11
-57.232357315094973
 21
-0.7625066111359615
  0
LINE
  8
0
  6
CONTINUOUS
 62
     7
 10
-57.232357315094973
 20
-0.7625066111359615
 11
-57.230346969635988
 21
-0.7048817942414303
  0
LINE
  8
0
  6
CONTINUOUS
 62
     7
 10
-57.230346969635988
 20
-0.7048817942414303
 11
-57.232357315094973
 21
-0.6492787668976803
  0
LINE
  8
0
  6
CONTINUOUS
 62
     7
 10
-57.232357315094973
 20
-0.6492787668976803
 11
-57.232357315094973
 21
-0.6220723459992428
  0
LINE
  8
0
  6
CONTINUOUS
 62
     7
 10
-58.167770675690676
 20
-0.5240804026398678
 11
-58.219837478669191
 21
-0.3884755442414303
  0
LINE
  8
0
  6
CONTINUOUS
 62
     7
 10
-58.219837478669191
 20
-0.3884755442414303
 11
-58.283218673737551
 21
-0.2646962473664303
  0
LINE
  8
0
  6
CONTINUOUS
 62
     7
 10
-58.283218673737551
 20
-0.2646962473664303
 11
-58.35740309146216
 21
-0.1536847422394772
  0
LINE
  8
0
  6
CONTINUOUS
 62
     7
 10
-58.35740309146216
 20
-0.1536847422394772
 11
-58.421966842682863
 21
-0.0792294810090084
  0
LINE
  8
0
  6
CONTINUOUS
 62
     7
 10
-61.084076217682863
 20
-3.846964008596899
 11
-60.676986984284426
 21
-3.643411762503149
  0
LINE
  8
0
  6
CONTINUOUS
 62
     7
 10
-61.084076217682863
 20
-2.547922260550024
 11
-60.676986984284426
 21
-2.3443776438508053
  0
LINE
  8
0
  6
CONTINUOUS
 62
     7
 10
-59.669861129792238
 20
-4.3733083079133053
 11
-59.669861129792238
 21
-4.8719044993195553
  0
LINE
  8
0
  6
CONTINUOUS
 62
     7
 10
-60.676986984284426
 20
-3.643411762503149
 11
-61.242660812409426
 21
-3.3605824778351803
  0
LINE
  8
0
  6
CONTINUOUS
 62
     7
 10
-60.235534957917238
 20
-4.090463764456274
 11
-59.669861129792238
 21
-4.3733083079133053
  0
LINE
  8
0
  6
CONTINUOUS
 62
     7
 10
-61.242660812409426
 20
-3.3605824778351803
 11
-61.612381271393801
 21
-3.5454350779328365
  0
LINE
  8
254
  6
CONTINUOUS
 62
     7
 10
-61.084076217682863
 20
-2.547922260550024
 11
-61.130295089753176
 21
-2.5734883616242428
  0
LINE
  8
254
  6
CONTINUOUS
 62
     7
 10
-61.130295089753176
 20
-2.5734883616242428
 11
-61.176163009675051
 21
-2.603830463675024
  0
LINE
  8
254
  6
CONTINUOUS
 62
     7
 10
-61.176163009675051
 20
-2.603830463675024
 11
-61.221329025300051
 21
-2.638681537893774
  0
LINE
  8
254
  6
CONTINUOUS
 62
     7
 10
-61.221329025300051
 20
-2.638681537893774
 11
-61.265457443268801
 21
-2.677774555471899
  0
LINE
  8
254
  6
CONTINUOUS
 62
     7
 10
-61.265457443268801
 20
-2.677774555471899
 11
-61.308197311432863
 21
-2.7208424876008053
  0
LINE
  8
254
  6
CONTINUOUS
 62
     7
 10
-61.308197311432863
 20
-2.7208424876008053
 11
-61.349243454010988
 21
-2.7675038645539303
  0
LINE
  8
254
  6
CONTINUOUS
 62
     7
 10
-61.349243454010988
 20
-2.7675038645539303
 11
-61.388260177643801
 21
-2.817484028128149
  0
LINE
  8
254
  6
CONTINUOUS
 62
     7
 10
-61.388260177643801
 20
-2.817484028128149
 11
-61.424957565339113
 21
-2.8703252146515865
  0
LINE
  8
254
  6
CONTINUOUS
 62
     7
 10
-61.424957565339113
 20
-2.8703252146515865
 11
-61.459076217682863
 21
-2.9256459543976803
  0
LINE
  8
254
  6
CONTINUOUS
 62
     7
 10
-61.459076217682863
 20
-2.9256459543976803
 11
-61.490326217682863
 21
-2.9830571482453365
  0
LINE
  8
254
  6
CONTINUOUS
 62
     7
 10
-61.490326217682863
 20
-2.9830571482453365
 11
-61.518493942292238
 21
-3.0421086619172115
  0
LINE
  8
254
  6
CONTINUOUS
 62
     7
 10
-61.518493942292238
 20
-3.0421086619172115
 11
-61.543350509675051
 21
-3.1023198435578365
  0
LINE
  8
254
  6
CONTINUOUS
 62
     7
 10
-61.543350509675051
 20
-3.1023198435578365
 11
-61.564712814362551
 21
-3.1632558176789303
  0
LINE
  8
254
  6
CONTINUOUS
 62
     7
 10
-61.564712814362551
 20
-3.1632558176789303
 11
-61.582428268464113
 21
-3.2244588206086178
  0
LINE
  8
254
  6
CONTINUOUS
 62
     7
 10
-61.582428268464113
 20
-3.2244588206086178
 11
-61.596329025300051
 21
-3.2854558298859615
  0
LINE
  8
254
  6
CONTINUOUS
 62
     7
 10
-61.596329025300051
 20
-3.2854558298859615
 11
-61.606354049714113
 21
-3.345773823050024
  0
LINE
  8
254
  6
CONTINUOUS
 62
     7
 10
-61.606354049714113
 20
-3.345773823050024
 11
-61.612381271393801
 21
-3.404977924612524
  0
LINE
  8
254
  6
CONTINUOUS
 62
     7
 10
-61.612381271393801
 20
-3.404977924612524
 11
-61.614410690339113
 21
-3.462595112112524
  0
LINE
  8
254
  6
CONTINUOUS
 62
     7
 10
-61.614410690339113
 20
-3.462595112112524
 11
-61.612381271393801
 21
-3.518198139456274
  0
LINE
  8
254
  6
CONTINUOUS
 62
     7
 10
-61.612381271393801
 20
-3.518198139456274
 11
-61.606354049714113
 21
-3.571359760550024
  0
LINE
  8
254
  6
CONTINUOUS
 62
     7
 10
-61.606354049714113
 20
-3.571359760550024
 11
-61.596329025300051
 21
-3.6216679880890865
  0
LINE
  8
254
  6
CONTINUOUS
 62
     7
 10
-61.596329025300051
 20
-3.6216679880890865
 11
-61.582428268464113
 21
-3.6687642405304928
  0
LINE
  8
254
  6
CONTINUOUS
 62
     7
 10
-61.582428268464113
 20
-3.6687642405304928
 11
-61.564712814362551
 21
-3.7122670481476803
  0
LINE
  8
254
  6
CONTINUOUS
 62
     7
 10
-61.564712814362551
 20
-3.7122670481476803
 11
-61.543350509675051
 21
-3.751840717581274
  0
LINE
  8
254
  6
CONTINUOUS
 62
     7
 10
-61.543350509675051
 20
-3.751840717581274
 11
-61.518493942292238
 21
-3.7871953318390865
  0
LINE
  8
254
  6
CONTINUOUS
 62
     7
 10
-61.518493942292238
 20
-3.7871953318390865
 11
-61.490326217682863
 21
-3.8180714915070553
  0
LINE
  8
254
  6
CONTINUOUS
 62
     7
 10
-61.490326217682863
 20
-3.8180714915070553
 11
-61.459076217682863
 21
-3.844217426565649
  0
LINE
  8
254
  6
CONTINUOUS
 62
     7
 10
-61.459076217682863
 20
-3.844217426565649
 11
-61.424957565339113
 21
-3.8654424021515865
  0
LINE
  8
254
  6
CONTINUOUS
 62
     7
 10
-61.424957565339113
 20
-3.8654424021515865
 11
-61.388260177643801
 21
-3.8815785715851803
  0
LINE
  8
254
  6
CONTINUOUS
 62
     7
 10
-61.388260177643801
 20
-3.8815785715851803
 11
-61.349243454010988
 21
-3.8925114939484615
  0
LINE
  8
254
  6
CONTINUOUS
 62
     7
 10
-61.349243454010988
 20
-3.8925114939484615
 11
-61.308197311432863
 21
-3.8981648752961178
  0
LINE
  8
254
  6
CONTINUOUS
 62
     7
 10
-61.308197311432863
 20
-3.8981648752961178
 11
-61.265457443268801
 21
-3.898477680471899
  0
LINE
  8
254
  6
CONTINUOUS
 62
     7
 10
-61.265457443268801
 20
-3.898477680471899
 11
-61.221329025300051
 21
-3.8934499094758053
  0
LINE
  8
254
  6
CONTINUOUS
 62
     7
 10
-61.221329025300051
 20
-3.8934499094758053
 11
-61.176163009675051
 21
-3.8831349680695553
  0
LINE
  8
254
  6
CONTINUOUS
 62
     7
 10
-61.176163009675051
 20
-3.8831349680695553
 11
-61.130295089753176
 21
-3.8676015208039303
  0
LINE
  8
254
  6
CONTINUOUS
 62
     7
 10
-61.130295089753176
 20
-3.8676015208039303
 11
-61.084076217682863
 21
-3.846964008596899
  0
LINE
  8
254
  6
CONTINUOUS
 62
     7
 10
-61.084076217682863
 20
-3.846964008596899
 11
-61.08306621768287
 21
-3.846964008596899
  0
LINE
  8
254
  6
CONTINUOUS
 62
     7
 10
-59.669861129792238
 20
-0.607339985159399
 11
-59.801834396393801
 21
-0.7371159861359615
  0
LINE
  8
254
  6
CONTINUOUS
 62
     7
 10
-59.801834396393801
 20
-0.7371159861359615
 11
-59.928791336091066
 21
-0.878214008596899
  0
LINE
  8
254
  6
CONTINUOUS
 62
     7
 10
-59.928791336091066
 20
-0.878214008596899
 11
-60.049717239411379
 21
-1.0295354197297115
  0
LINE
  8
254
  6
CONTINUOUS
 62
     7
 10
-60.049717239411379
 20
-1.0295354197297115
 11
-60.163727096589113
 21
-1.1899663279328365
  0
LINE
  8
254
  6
CONTINUOUS
 62
     7
 10
-60.163727096589113
 20
-1.1899663279328365
 11
-60.269932083161379
 21
-1.3583012888703365
  0
LINE
  8
254
  6
CONTINUOUS
 62
     7
 10
-60.269932083161379
 20
-1.3583012888703365
 11
-60.36753492739966
 21
-1.5332204172883053
  0
LINE
  8
254
  6
CONTINUOUS
 62
     7
 10
-60.36753492739966
 20
-1.5332204172883053
 11
-60.455795578034426
 21
-1.7134038279328365
  0
LINE
  8
254
  6
CONTINUOUS
 62
     7
 10
-60.455795578034426
 20
-1.7134038279328365
 11
-60.53403883364966
 21
-1.8974782297883053
  0
LINE
  8
254
  6
CONTINUOUS
 62
     7
 10
-60.53403883364966
 20
-1.8974782297883053
 11
-60.601669601471926
 21
-2.0840474436554928
  0
LINE
  8
254
  6
CONTINUOUS
 62
     7
 10
-60.601669601471926
 20
-2.0840474436554928
 11
-60.658169082673098
 21
-2.271677143362524
  0
LINE
  8
254
  6
CONTINUOUS
 62
     7
 10
-60.658169082673098
 20
-2.271677143362524
 11
-60.676986984284426
 21
-2.344370014456274
  0
LINE
  8
254
  6
CONTINUOUS
 62
     7
 10
-60.676986984284426
 20
-3.6433965037140865
 11
-60.624908737214113
 21
-3.779001362112524
  0
LINE
  8
254
  6
CONTINUOUS
 62
     7
 10
-60.624908737214113
 20
-3.779001362112524
 11
-60.561538986237551
 21
-3.9027959177765865
  0
LINE
  8
254
  6
CONTINUOUS
 62
     7
 10
-60.561538986237551
 20
-3.9027959177765865
 11
-60.487331680329348
 21
-4.013803608206274
  0
LINE
  8
254
  6
CONTINUOUS
 62
     7
 10
-60.487331680329348
 20
-4.013803608206274
 11
-60.402878097565676
 21
-4.1112080881867428
  0
LINE
  8
254
  6
CONTINUOUS
 62
     7
 10
-60.402878097565676
 20
-4.1112080881867428
 11
-60.308807662995363
 21
-4.1942464182648678
  0
LINE
  8
254
  6
CONTINUOUS
 62
     7
 10
-60.308807662995363
 20
-4.1942464182648678
 11
-60.205845169098879
 21
-4.262308246878149
  0
LINE
  8
254
  6
CONTINUOUS
 62
     7
 10
-60.205845169098879
 20
-4.262308246878149
 11
-60.094757370026613
 21
-4.314859516409399
  0
LINE
  8
254
  6
CONTINUOUS
 62
     7
 10
-60.094757370026613
 20
-4.314859516409399
 11
-59.976394943268801
 21
-4.3515187571320553
  0
LINE
  8
254
  6
CONTINUOUS
 62
     7
 10
-59.976394943268801
 20
-4.3515187571320553
 11
-59.851688674958254
 21
-4.3719731638703365
  0
LINE
  8
254
  6
CONTINUOUS
 62
     7
 10
-59.851688674958254
 20
-4.3719731638703365
 11
-59.721527389557863
 21
-4.3761159251008053
  0
LINE
  8
254
  6
CONTINUOUS
 62
     7
 10
-59.721527389557863
 20
-4.3761159251008053
 11
-59.669861129792238
 21
-4.3733235667023678
  0
LINE
  8
0
  6
CONTINUOUS
 62
     7
 10
-60.422779373200441
 20
-4.0882512400422115
 11
-60.417358688385988
 21
-4.0891362498078365
  0
LINE
  8
0
  6
CONTINUOUS
 62
     7
 10
-60.417358688385988
 20
-4.0891362498078365
 11
-60.287216476471926
 21
-4.093271381643774
  0
LINE
  8
0
  6
CONTINUOUS
 62
     7
 10
-60.287216476471926
 20
-4.093271381643774
 11
-60.235534957917238
 21
-4.090463764456274
  0
LINE
  8
0
  6
CONTINUOUS
 62
     7
 10
-59.667846969635988
 20
-4.9527455637726803
 11
-59.658996871979738
 21
-4.9478322336945553
  0
LINE
  8
0
  6
CONTINUOUS
 62
     7
 10
-59.658996871979738
 20
-4.9478322336945553
 11
-59.613128952057863
 21
-4.9175053904328365
  0
LINE
  8
0
  6
CONTINUOUS
 62
     7
 10
-59.613128952057863
 20
-4.9175053904328365
 11
-59.567962936432863
 21
-4.8826543162140865
  0
LINE
  8
0
  6
CONTINUOUS
 62
     7
 10
-59.567962936432863
 20
-4.8826543162140865
 11
-59.523830703766848
 21
-4.8435612986359615
  0
LINE
  8
0
  6
CONTINUOUS
 62
     7
 10
-59.523830703766848
 20
-4.8435612986359615
 11
-59.481090835602785
 21
-4.8005009959015865
  0
LINE
  8
0
  6
CONTINUOUS
 62
     7
 10
-59.481090835602785
 20
-4.8005009959015865
 11
-59.440052322419191
 21
-4.7538319895539303
  0
LINE
  8
0
  6
CONTINUOUS
 62
     7
 10
-59.440052322419191
 20
-4.7538319895539303
 11
-59.401035598786379
 21
-4.7038518259797115
  0
LINE
  8
0
  6
CONTINUOUS
 62
     7
 10
-59.401035598786379
 20
-4.7038518259797115
 11
-59.364319137604738
 21
-4.651010639456274
  0
LINE
  8
0
  6
CONTINUOUS
 62
     7
 10
-59.364319137604738
 20
-4.651010639456274
 11
-59.330219558747316
 21
-4.5956746409211178
  0
LINE
  8
0
  6
CONTINUOUS
 62
     7
 10
-59.330219558747316
 20
-4.5956746409211178
 11
-59.298961929352785
 21
-4.538278705862524
  0
LINE
  8
0
  6
CONTINUOUS
 62
     7
 10
-59.298961929352785
 20
-4.538278705862524
 11
-59.270798019440676
 21
-4.479227192190649
  0
LINE
  8
0
  6
CONTINUOUS
 62
     7
 10
-59.270798019440676
 20
-4.479227192190649
 11
-59.245945266755129
 21
-4.419016010550024
  0
LINE
  8
0
  6
CONTINUOUS
 62
     7
 10
-59.245945266755129
 20
-4.419016010550024
 11
-59.224579147370363
 21
-4.3580647776398678
  0
LINE
  8
0
  6
CONTINUOUS
 62
     7
 10
-59.224579147370363
 20
-4.3580647776398678
 11
-59.206863693268801
 21
-4.2968617747101803
  0
LINE
  8
0
  6
CONTINUOUS
 62
     7
 10
-59.206863693268801
 20
-4.2968617747101803
 11
-59.192962936432863
 21
-4.235880024221899
  0
LINE
  8
0
  6
CONTINUOUS
 62
     7
 10
-59.192962936432863
 20
-4.235880024221899
 11
-59.182941726716066
 21
-4.175546772268774
  0
LINE
  8
0
  6
CONTINUOUS
 62
     7
 10
-59.182941726716066
 20
-4.175546772268774
 11
-59.176910690339113
 21
-4.1163579294953365
  0
LINE
  8
0
  6
CONTINUOUS
 62
     7
 10
-59.176910690339113
 20
-4.1163579294953365
 11
-59.174877456696535
 21
-4.0587407419953365
  0
LINE
  8
0
  6
CONTINUOUS
 62
     7
 10
-59.174877456696535
 20
-4.0587407419953365
 11
-59.173867456696534
 21
-4.0587407419953365
  0
LINE
  8
0
  6
CONTINUOUS
 62
     7
 10
-74.351738266022707
 20
 0.3775194813933354
 11
-72.837333969147707
 21
 4.6237276723113041
  0
LINE
  8
0
  6
CONTINUOUS
 62
     7
 10
-74.351738266022707
 20
 0.3775194813933354
 11
-71.883789352448488
 21
 1.8919428517546635
  0
LINE
  8
0
  6
CONTINUOUS
 62
     7
 10
-67.789238266022707
 20
-0.3516484568390865
 11
-71.883789352448488
 21
 1.8919428517546635
  0
LINE
  8
0
  6
CONTINUOUS
 62
     7
 10
-67.789238266022707
 20
-0.3516484568390865
 11
-63.638580612214113
 21
 2.6210726430144291
  0
LINE
  8
0
  6
CONTINUOUS
 62
     7
 10
-63.638580612214113
 20
 2.6210726430144291
 11
-67.534035018952395
 21
 4.6237276723113041
  0
LINE
  8
0
  6
CONTINUOUS
 62
     7
 10
-67.534035018952395
 20
 4.6237276723113041
 11
-64.882377914460207
 21
 6.4987314870085697
  0
LINE
  8
0
  6
CONTINUOUS
 62
     7
 10
-64.882377914460207
 20
 6.4987314870085697
 11
-72.837333969147707
 21
 4.6237276723113041
  0
LINE
  8
0
  6
CONTINUOUS
 62
     7
 10
-74.351738266022707
 20
 0.3775194813933354
 11
-72.837333969147707
 21
 4.6237276723113041
  0
LINE
  8
0
  6
CONTINUOUS
 62
     7
 10
-74.351738266022707
 20
 0.3775194813933354
 11
-71.883789352448488
 21
 1.8919428517546635
  0
LINE
  8
0
  6
CONTINUOUS
 62
     7
 10
-67.789238266022707
 20
-0.3516484568390865
 11
-71.883789352448488
 21
 1.8919428517546635
  0
LINE
  8
0
  6
CONTINUOUS
 62
     7
 10
-67.789238266022707
 20
-0.3516484568390865
 11
-63.638580612214113
 21
 2.6210726430144291
  0
LINE
  8
0
  6
CONTINUOUS
 62
     7
 10
-63.638580612214113
 20
 2.6210726430144291
 11
-67.534035018952395
 21
 4.623739116403101
  0
LINE
  8
0
  6
CONTINUOUS
 62
     7
 10
-67.534035018952395
 20
 4.623739116403101
 11
-64.882377914460207
 21
 6.4987314870085697
  0
LINE
  8
0
  6
CONTINUOUS
 62
     7
 10
-64.882377914460207
 20
 6.4987314870085697
 11
-72.837333969147707
 21
 4.6237276723113041
  0
LINE
  8
256
  6
CONTINUOUS
 62
     7
 10
-193.30000000000001
 20
 124.99999645625348
 11
-93.300000000000011
 21
 124.99999645625348
  0
LINE
  8
256
  6
CONTINUOUS
 62
     7
 10
-93.300000000000011
 20
 124.9999964562535
 11
-93.300000000000011
 21
 136.99999721136808
  0
TEXT
  8
256
  6
CONTINUOUS
 62
     7
 10
-188.30000000000001
 20
 127.99999604817611
 11
-140.30000000000001
 21
 127.99999604817611
 40
 6
 41
 1
  1
ＬＢ－Ｄ９９６０
 50
 0
 72
  5
  0
LINE
  8
256
  6
CONTINUOUS
 62
     7
 10
 104.99998474121094
 20
-121.5
 11
 200
 21
-121.5
  0
LINE
  8
256
  6
CONTINUOUS
 62
     7
 10
 170.99998474121094
 20
-109.5
 11
 170.99998474121094
 21
-121.5
  0
TEXT
  8
256
  6
CONTINUOUS
 62
     7
 10
 112.5
 20
-134.25
 11
 160.5
 21
-134.25
 40
 6
 41
 1
  1
ＴＭ－１４７－３
 50
 0
 72
  5
  0
TEXT
  8
256
  6
CONTINUOUS
 62
     7
 10
 127.99998474121094
 20
-119.75
 11
 147.99998474121094
 21
-119.75
 40
 5
 41
 0.8
  1
ワッシャー
 50
 0
 72
  5
  0
TEXT
  8
256
  6
CONTINUOUS
 62
     7
 10
 106.29998779296875
 20
-112.4499633789062
 11
 111.29998779296875
 21
-112.4499633789062
 40
 2.5
 41
 0.8
  1
品名
 50
 0
 72
  5
  0
TEXT
  8
256
  6
CONTINUOUS
 62
     7
 10
 106.29998779296875
 20
-124.45003051757811
 11
 111.29998779296875
 21
-124.45003051757811
 40
 2.5
 41
 0.8
  1
品番
 50
 0
 72
  5
  0
LINE
  8
256
  6
CONTINUOUS
 62
     7
 10
 104.99998474121094
 20
-139.5
 11
 104.99998474121094
 21
-109.5
  0
LINE
  8
256
  6
CONTINUOUS
 62
     7
 10
 104.99998474121094
 20
-109.5
 11
 200
 21
-109.5
  0
LINE
  8
256
  6
CONTINUOUS
 62
     7
 10
-193.30000000000001
 20
 136.99999721136808
 11
-193.30000000000001
 21
-139.49999999999994
  0
LINE
  8
256
  6
CONTINUOUS
 62
     7
 10
-193.30000000000001
 20
 136.99999721136808
 11
 200
 21
 136.99999721136808
  0
LINE
  8
256
  6
CONTINUOUS
 62
     7
 10
 200
 20
-139.5
 11
-193.30000000000001
 21
-139.49999999999994
  0
LINE
  8
256
  6
CONTINUOUS
 62
     7
 10
 200
 20
 136.99999721136808
 11
 200
 21
-139.5
  0
LINE
  8
0
  6
CONTINUOUS
 62
     7
 10
-6
 20
 5.8052978515625
 11
-6
 21
 18.880668640136719
  0
LINE
  8
0
  6
CONTINUOUS
 62
     7
 10
 6.0000076293945312
 20
 5.8052978515625
 11
 6.0000076293945312
 21
 18.880668640136719
  0
LINE
  8
0
  6
CONTINUOUS
 62
     7
 10
-6
 20
 17.920669555664063
 11
 6.0000076293945312
 21
 17.920669555664063
  0
LINE
  8
0
  6
CONTINUOUS
 62
     7
 10
-6
 20
 17.920669555664063
 11
-3.102222521132795
 21
 17.144212420356499
  0
LINE
  8
0
  6
CONTINUOUS
 62
     7
 10
-6
 20
 17.920669555664063
 11
-3.102222521132795
 21
 18.697126690971626
  0
LINE
  8
0
  6
CONTINUOUS
 62
     7
 10
 6.0000076293945312
 20
 17.920669555664063
 11
 3.1022301505273262
 21
 18.697126690971626
  0
LINE
  8
0
  6
CONTINUOUS
 62
     7
 10
 6.0000076293945312
 20
 17.920669555664063
 11
 3.1022301505273262
 21
 17.144212420356499
  0
TEXT
  8
0
  6
CONTINUOUS
 62
     7
 10
-2.8499954223632811
 20
 18.880668640136719
 11
 2.9500045776367196
 21
 18.880668640136719
 40
 2
 41
 0.8
  1
φ12
 50
 0
 72
  5
  0
LINE
  8
0
  6
CONTINUOUS
 62
     7
 10
-1.5747451782226563
 20
-1.6483230590820313
 11
 1.5747451782226563
 21
 1.7043991088867187
  0
LINE
  8
0
  6
CONTINUOUS
 62
     7
 10
-1.5747451782226563
 20
-1.6483230590820313
 11
 0.9752020938959372
 21
-0.0678899192703701
  0
LINE
  8
0
  6
CONTINUOUS
 62
     7
 10
-1.5747451782226563
 20
-1.6483230590820313
 11
-0.1566426321629542
 21
 0.9953458250369671
  0
LINE
  8
0
  6
CONTINUOUS
 62
     7
 10
 1.5747451782226563
 20
 1.7043991088867187
 11
-0.9752020938959372
 21
 0.1239659690750576
  0
LINE
  8
0
  6
CONTINUOUS
 62
     7
 10
 1.5747451782226563
 20
 1.7043991088867187
 11
 0.1566426321629542
 21
-0.9392697752322796
  0
TEXT
  8
0
  6
CONTINUOUS
 62
     7
 10
-11.993642825799078
 20
-11.337420537962927
 11
-6.5847447508495254
 21
-5.5794850038667843
 40
 2
 41
 0.8
  1
φ4.6
 50
 46.790290254504107
 72
  5
  0
LINE
  8
0
  6
CONTINUOUS
 62
     7
 10
-1.5747451782226563
 20
-1.6483230590820313
 11
-12.389411926269531
 21
-13.160869598388672
  0
ENDSEC
  0
EOF
