  0
SECTION
  2
HEADER
  9
$INSBASE
 10
0.0
20
0.0
  9
$REGENMODE
 70
     1
  9
$DRAGMODE
 70
     1
  9
$DIMTAD
 70
     1
  9
$EXTMIN
 10
-210.000000
 20
-148.500000
 30
 0.0
  9
$EXTMAX
 10
210.000000
 20
148.500000
 30
 0.0
  9
$LUPREC
 70
    3
  9
$AUPREC
 70
    3
  9
$LTSCALE
 40
26.250000
  0
ENDSEC
  0
SECTION
  2
TABLES
  0
TABLE
  2
LTYPE
 70
     6
  0
LTYPE
  2
CONTINUOUS
 70
    64
  3
SOLID
 72
    65
 73
     0
 40
0.0
  0
LTYPE
  2
DASHED2
 70
    64
  3
_ _ _ _ _ _ _ _ _ _ _ _ _ _ _ _ _ _ _ _ _ _ 
 72
    65
 73
     2
 40
0.5
 49
0.25
 49
-0.25
  0
LTYPE
  2
DASHED
 70
    64
  3
__ __ __ __ __ __ __ __ __ __ __ __ __ __ __
 72
    65
 73
     2
 40
0.75
 49
0.5
 49
-0.25
  0
LTYPE
  2
DASHEDX2
 70
    64
  3
____  ____  ____  ____  ____  ____  ____  __
 72
    65
 73
     2
 40
1.5
 49
1.0
 49
-0.5
  0
LTYPE
  2
DOT
 70
    64
  3
............................................
 72
    65
 73
     2
 40
0.25
 49
0
 49
-0.25
  0
LTYPE
  2
DASHDOT
 70
    64
  3
__ . __ . __ . __ . __ . __ . __ . __ . __ .
 72
    65
 73
     4
 40
1.0
 49
0.5
 49
-0.25
 49
0.0
 49
-0.25
  0
LTYPE
  2
CENTER
 70
    64
  3
____ _ ____ _ ____ _ ____ _ ____ _ ____ _ __
 72
    65
 73
     4
 40
2.0
 49
1.25
 49
-0.25
 49
0.25
 49
-0.25
  0
LTYPE
  2
DIVIDE
 70
    64
  3
__ . . __ . . __ . . __ . . __ . . __ . . __
 72
    65
 73
     6
 40
1.25
 49
0.5
 49
-0.25
 49
0.0
 49
-0.25
 49
0.0
 49
-0.25
  0
LTYPE
  2
PHANTOM2
 70
    64
  3
___ _ _ ___ _ _ ___ _ _ ___ _ _ ___ _ _ ___ 
 72
    65
 73
     6
 40
1.25
 49
0.625
 49
-0.125
 49
0.125
 49
-0.125
 49
0.125
 49
-0.125
  0
LTYPE
  2
DOTX2
 70
    64
  3
. . . . . . . . . . . . . . . . . . . . . . 
 72
    65
 73
     2
 40
0.5
 49
0
 49
-0.5
  0
ENDTAB
  0
TABLE
  2
LAYER
 70
   255
  0
LAYER
  2
0
 70
    64
 62
     7
  6
CONTINUOUS
  0
LAYER
  2
1
 70
    64
 62
     7
  6
CONTINUOUS
  0
LAYER
  2
2
 70
    64
 62
     7
  6
CONTINUOUS
  0
LAYER
  2
3
 70
    64
 62
     7
  6
CONTINUOUS
  0
LAYER
  2
4
 70
    64
 62
     7
  6
CONTINUOUS
  0
LAYER
  2
5
 70
    64
 62
     7
  6
CONTINUOUS
  0
LAYER
  2
6
 70
    64
 62
     7
  6
CONTINUOUS
  0
LAYER
  2
7
 70
    64
 62
     7
  6
CONTINUOUS
  0
LAYER
  2
8
 70
    64
 62
     7
  6
CONTINUOUS
  0
LAYER
  2
9
 70
    64
 62
     7
  6
CONTINUOUS
  0
LAYER
  2
10
 70
    64
 62
     7
  6
CONTINUOUS
  0
LAYER
  2
11
 70
    64
 62
     7
  6
CONTINUOUS
  0
LAYER
  2
12
 70
    64
 62
     7
  6
CONTINUOUS
  0
LAYER
  2
13
 70
    64
 62
     7
  6
CONTINUOUS
  0
LAYER
  2
14
 70
    64
 62
     7
  6
CONTINUOUS
  0
LAYER
  2
15
 70
    64
 62
     7
  6
CONTINUOUS
  0
LAYER
  2
16
 70
    64
 62
     7
  6
CONTINUOUS
  0
LAYER
  2
17
 70
    64
 62
     7
  6
CONTINUOUS
  0
LAYER
  2
18
 70
    64
 62
     7
  6
CONTINUOUS
  0
LAYER
  2
19
 70
    64
 62
     7
  6
CONTINUOUS
  0
LAYER
  2
20
 70
    64
 62
     7
  6
CONTINUOUS
  0
LAYER
  2
21
 70
    64
 62
     7
  6
CONTINUOUS
  0
LAYER
  2
22
 70
    64
 62
     7
  6
CONTINUOUS
  0
LAYER
  2
23
 70
    64
 62
     7
  6
CONTINUOUS
  0
LAYER
  2
24
 70
    64
 62
     7
  6
CONTINUOUS
  0
LAYER
  2
25
 70
    64
 62
     7
  6
CONTINUOUS
  0
LAYER
  2
26
 70
    64
 62
     7
  6
CONTINUOUS
  0
LAYER
  2
27
 70
    64
 62
     7
  6
CONTINUOUS
  0
LAYER
  2
28
 70
    64
 62
     7
  6
CONTINUOUS
  0
LAYER
  2
29
 70
    64
 62
     7
  6
CONTINUOUS
  0
LAYER
  2
30
 70
    64
 62
     7
  6
CONTINUOUS
  0
LAYER
  2
31
 70
    64
 62
     7
  6
CONTINUOUS
  0
LAYER
  2
32
 70
    64
 62
     7
  6
CONTINUOUS
  0
LAYER
  2
33
 70
    64
 62
     7
  6
CONTINUOUS
  0
LAYER
  2
34
 70
    64
 62
     7
  6
CONTINUOUS
  0
LAYER
  2
35
 70
    64
 62
     7
  6
CONTINUOUS
  0
LAYER
  2
36
 70
    64
 62
     7
  6
CONTINUOUS
  0
LAYER
  2
37
 70
    64
 62
     7
  6
CONTINUOUS
  0
LAYER
  2
38
 70
    64
 62
     7
  6
CONTINUOUS
  0
LAYER
  2
39
 70
    64
 62
     7
  6
CONTINUOUS
  0
LAYER
  2
40
 70
    64
 62
     7
  6
CONTINUOUS
  0
LAYER
  2
41
 70
    64
 62
     7
  6
CONTINUOUS
  0
LAYER
  2
42
 70
    64
 62
     7
  6
CONTINUOUS
  0
LAYER
  2
43
 70
    64
 62
     7
  6
CONTINUOUS
  0
LAYER
  2
44
 70
    64
 62
     7
  6
CONTINUOUS
  0
LAYER
  2
45
 70
    64
 62
     7
  6
CONTINUOUS
  0
LAYER
  2
46
 70
    64
 62
     7
  6
CONTINUOUS
  0
LAYER
  2
47
 70
    64
 62
     7
  6
CONTINUOUS
  0
LAYER
  2
48
 70
    64
 62
     7
  6
CONTINUOUS
  0
LAYER
  2
49
 70
    64
 62
     7
  6
CONTINUOUS
  0
LAYER
  2
50
 70
    64
 62
     7
  6
CONTINUOUS
  0
LAYER
  2
51
 70
    64
 62
     7
  6
CONTINUOUS
  0
LAYER
  2
52
 70
    64
 62
     7
  6
CONTINUOUS
  0
LAYER
  2
53
 70
    64
 62
     7
  6
CONTINUOUS
  0
LAYER
  2
54
 70
    64
 62
     7
  6
CONTINUOUS
  0
LAYER
  2
55
 70
    64
 62
     7
  6
CONTINUOUS
  0
LAYER
  2
56
 70
    64
 62
     7
  6
CONTINUOUS
  0
LAYER
  2
57
 70
    64
 62
     7
  6
CONTINUOUS
  0
LAYER
  2
58
 70
    64
 62
     7
  6
CONTINUOUS
  0
LAYER
  2
59
 70
    64
 62
     7
  6
CONTINUOUS
  0
LAYER
  2
60
 70
    64
 62
     7
  6
CONTINUOUS
  0
LAYER
  2
61
 70
    64
 62
     7
  6
CONTINUOUS
  0
LAYER
  2
62
 70
    64
 62
     7
  6
CONTINUOUS
  0
LAYER
  2
63
 70
    64
 62
     7
  6
CONTINUOUS
  0
LAYER
  2
64
 70
    64
 62
     7
  6
CONTINUOUS
  0
LAYER
  2
65
 70
    64
 62
     7
  6
CONTINUOUS
  0
LAYER
  2
66
 70
    64
 62
     7
  6
CONTINUOUS
  0
LAYER
  2
67
 70
    64
 62
     7
  6
CONTINUOUS
  0
LAYER
  2
68
 70
    64
 62
     7
  6
CONTINUOUS
  0
LAYER
  2
69
 70
    64
 62
     7
  6
CONTINUOUS
  0
LAYER
  2
70
 70
    64
 62
     7
  6
CONTINUOUS
  0
LAYER
  2
71
 70
    64
 62
     7
  6
CONTINUOUS
  0
LAYER
  2
72
 70
    64
 62
     7
  6
CONTINUOUS
  0
LAYER
  2
73
 70
    64
 62
     7
  6
CONTINUOUS
  0
LAYER
  2
74
 70
    64
 62
     7
  6
CONTINUOUS
  0
LAYER
  2
75
 70
    64
 62
     7
  6
CONTINUOUS
  0
LAYER
  2
76
 70
    64
 62
     7
  6
CONTINUOUS
  0
LAYER
  2
77
 70
    64
 62
     7
  6
CONTINUOUS
  0
LAYER
  2
78
 70
    64
 62
     7
  6
CONTINUOUS
  0
LAYER
  2
79
 70
    64
 62
     7
  6
CONTINUOUS
  0
LAYER
  2
80
 70
    64
 62
     7
  6
CONTINUOUS
  0
LAYER
  2
81
 70
    64
 62
     7
  6
CONTINUOUS
  0
LAYER
  2
82
 70
    64
 62
     7
  6
CONTINUOUS
  0
LAYER
  2
83
 70
    64
 62
     7
  6
CONTINUOUS
  0
LAYER
  2
84
 70
    64
 62
     7
  6
CONTINUOUS
  0
LAYER
  2
85
 70
    64
 62
     7
  6
CONTINUOUS
  0
LAYER
  2
86
 70
    64
 62
     7
  6
CONTINUOUS
  0
LAYER
  2
87
 70
    64
 62
     7
  6
CONTINUOUS
  0
LAYER
  2
88
 70
    64
 62
     7
  6
CONTINUOUS
  0
LAYER
  2
89
 70
    64
 62
     7
  6
CONTINUOUS
  0
LAYER
  2
90
 70
    64
 62
     7
  6
CONTINUOUS
  0
LAYER
  2
91
 70
    64
 62
     7
  6
CONTINUOUS
  0
LAYER
  2
92
 70
    64
 62
     7
  6
CONTINUOUS
  0
LAYER
  2
93
 70
    64
 62
     7
  6
CONTINUOUS
  0
LAYER
  2
94
 70
    64
 62
     7
  6
CONTINUOUS
  0
LAYER
  2
95
 70
    64
 62
     7
  6
CONTINUOUS
  0
LAYER
  2
96
 70
    64
 62
     7
  6
CONTINUOUS
  0
LAYER
  2
97
 70
    64
 62
     7
  6
CONTINUOUS
  0
LAYER
  2
98
 70
    64
 62
     7
  6
CONTINUOUS
  0
LAYER
  2
99
 70
    64
 62
     7
  6
CONTINUOUS
  0
LAYER
  2
100
 70
    64
 62
     7
  6
CONTINUOUS
  0
LAYER
  2
101
 70
    64
 62
     7
  6
CONTINUOUS
  0
LAYER
  2
102
 70
    64
 62
     7
  6
CONTINUOUS
  0
LAYER
  2
103
 70
    64
 62
     7
  6
CONTINUOUS
  0
LAYER
  2
104
 70
    64
 62
     7
  6
CONTINUOUS
  0
LAYER
  2
105
 70
    64
 62
     7
  6
CONTINUOUS
  0
LAYER
  2
106
 70
    64
 62
     7
  6
CONTINUOUS
  0
LAYER
  2
107
 70
    64
 62
     7
  6
CONTINUOUS
  0
LAYER
  2
108
 70
    64
 62
     7
  6
CONTINUOUS
  0
LAYER
  2
109
 70
    64
 62
     7
  6
CONTINUOUS
  0
LAYER
  2
110
 70
    64
 62
     7
  6
CONTINUOUS
  0
LAYER
  2
111
 70
    64
 62
     7
  6
CONTINUOUS
  0
LAYER
  2
112
 70
    64
 62
     7
  6
CONTINUOUS
  0
LAYER
  2
113
 70
    64
 62
     7
  6
CONTINUOUS
  0
LAYER
  2
114
 70
    64
 62
     7
  6
CONTINUOUS
  0
LAYER
  2
115
 70
    64
 62
     7
  6
CONTINUOUS
  0
LAYER
  2
116
 70
    64
 62
     7
  6
CONTINUOUS
  0
LAYER
  2
117
 70
    64
 62
     7
  6
CONTINUOUS
  0
LAYER
  2
118
 70
    64
 62
     7
  6
CONTINUOUS
  0
LAYER
  2
119
 70
    64
 62
     7
  6
CONTINUOUS
  0
LAYER
  2
120
 70
    64
 62
     7
  6
CONTINUOUS
  0
LAYER
  2
121
 70
    64
 62
     7
  6
CONTINUOUS
  0
LAYER
  2
122
 70
    64
 62
     7
  6
CONTINUOUS
  0
LAYER
  2
123
 70
    64
 62
     7
  6
CONTINUOUS
  0
LAYER
  2
124
 70
    64
 62
     7
  6
CONTINUOUS
  0
LAYER
  2
125
 70
    64
 62
     7
  6
CONTINUOUS
  0
LAYER
  2
126
 70
    64
 62
     7
  6
CONTINUOUS
  0
LAYER
  2
127
 70
    64
 62
     7
  6
CONTINUOUS
  0
LAYER
  2
128
 70
    64
 62
     7
  6
CONTINUOUS
  0
LAYER
  2
129
 70
    64
 62
     7
  6
CONTINUOUS
  0
LAYER
  2
130
 70
    64
 62
     7
  6
CONTINUOUS
  0
LAYER
  2
131
 70
    64
 62
     7
  6
CONTINUOUS
  0
LAYER
  2
132
 70
    64
 62
     7
  6
CONTINUOUS
  0
LAYER
  2
133
 70
    64
 62
     7
  6
CONTINUOUS
  0
LAYER
  2
134
 70
    64
 62
     7
  6
CONTINUOUS
  0
LAYER
  2
135
 70
    64
 62
     7
  6
CONTINUOUS
  0
LAYER
  2
136
 70
    64
 62
     7
  6
CONTINUOUS
  0
LAYER
  2
137
 70
    64
 62
     7
  6
CONTINUOUS
  0
LAYER
  2
138
 70
    64
 62
     7
  6
CONTINUOUS
  0
LAYER
  2
139
 70
    64
 62
     7
  6
CONTINUOUS
  0
LAYER
  2
140
 70
    64
 62
     7
  6
CONTINUOUS
  0
LAYER
  2
141
 70
    64
 62
     7
  6
CONTINUOUS
  0
LAYER
  2
142
 70
    64
 62
     7
  6
CONTINUOUS
  0
LAYER
  2
143
 70
    64
 62
     7
  6
CONTINUOUS
  0
LAYER
  2
144
 70
    64
 62
     7
  6
CONTINUOUS
  0
LAYER
  2
145
 70
    64
 62
     7
  6
CONTINUOUS
  0
LAYER
  2
146
 70
    64
 62
     7
  6
CONTINUOUS
  0
LAYER
  2
147
 70
    64
 62
     7
  6
CONTINUOUS
  0
LAYER
  2
148
 70
    64
 62
     7
  6
CONTINUOUS
  0
LAYER
  2
149
 70
    64
 62
     7
  6
CONTINUOUS
  0
LAYER
  2
150
 70
    64
 62
     7
  6
CONTINUOUS
  0
LAYER
  2
151
 70
    64
 62
     7
  6
CONTINUOUS
  0
LAYER
  2
152
 70
    64
 62
     7
  6
CONTINUOUS
  0
LAYER
  2
153
 70
    64
 62
     7
  6
CONTINUOUS
  0
LAYER
  2
154
 70
    64
 62
     7
  6
CONTINUOUS
  0
LAYER
  2
155
 70
    64
 62
     7
  6
CONTINUOUS
  0
LAYER
  2
156
 70
    64
 62
     7
  6
CONTINUOUS
  0
LAYER
  2
157
 70
    64
 62
     7
  6
CONTINUOUS
  0
LAYER
  2
158
 70
    64
 62
     7
  6
CONTINUOUS
  0
LAYER
  2
159
 70
    64
 62
     7
  6
CONTINUOUS
  0
LAYER
  2
160
 70
    64
 62
     7
  6
CONTINUOUS
  0
LAYER
  2
161
 70
    64
 62
     7
  6
CONTINUOUS
  0
LAYER
  2
162
 70
    64
 62
     7
  6
CONTINUOUS
  0
LAYER
  2
163
 70
    64
 62
     7
  6
CONTINUOUS
  0
LAYER
  2
164
 70
    64
 62
     7
  6
CONTINUOUS
  0
LAYER
  2
165
 70
    64
 62
     7
  6
CONTINUOUS
  0
LAYER
  2
166
 70
    64
 62
     7
  6
CONTINUOUS
  0
LAYER
  2
167
 70
    64
 62
     7
  6
CONTINUOUS
  0
LAYER
  2
168
 70
    64
 62
     7
  6
CONTINUOUS
  0
LAYER
  2
169
 70
    64
 62
     7
  6
CONTINUOUS
  0
LAYER
  2
170
 70
    64
 62
     7
  6
CONTINUOUS
  0
LAYER
  2
171
 70
    64
 62
     7
  6
CONTINUOUS
  0
LAYER
  2
172
 70
    64
 62
     7
  6
CONTINUOUS
  0
LAYER
  2
173
 70
    64
 62
     7
  6
CONTINUOUS
  0
LAYER
  2
174
 70
    64
 62
     7
  6
CONTINUOUS
  0
LAYER
  2
175
 70
    64
 62
     7
  6
CONTINUOUS
  0
LAYER
  2
176
 70
    64
 62
     7
  6
CONTINUOUS
  0
LAYER
  2
177
 70
    64
 62
     7
  6
CONTINUOUS
  0
LAYER
  2
178
 70
    64
 62
     7
  6
CONTINUOUS
  0
LAYER
  2
179
 70
    64
 62
     7
  6
CONTINUOUS
  0
LAYER
  2
180
 70
    64
 62
     7
  6
CONTINUOUS
  0
LAYER
  2
181
 70
    64
 62
     7
  6
CONTINUOUS
  0
LAYER
  2
182
 70
    64
 62
     7
  6
CONTINUOUS
  0
LAYER
  2
183
 70
    64
 62
     7
  6
CONTINUOUS
  0
LAYER
  2
184
 70
    64
 62
     7
  6
CONTINUOUS
  0
LAYER
  2
185
 70
    64
 62
     7
  6
CONTINUOUS
  0
LAYER
  2
186
 70
    64
 62
     7
  6
CONTINUOUS
  0
LAYER
  2
187
 70
    64
 62
     7
  6
CONTINUOUS
  0
LAYER
  2
188
 70
    64
 62
     7
  6
CONTINUOUS
  0
LAYER
  2
189
 70
    64
 62
     7
  6
CONTINUOUS
  0
LAYER
  2
190
 70
    64
 62
     7
  6
CONTINUOUS
  0
LAYER
  2
191
 70
    64
 62
     7
  6
CONTINUOUS
  0
LAYER
  2
192
 70
    64
 62
     7
  6
CONTINUOUS
  0
LAYER
  2
193
 70
    64
 62
     7
  6
CONTINUOUS
  0
LAYER
  2
194
 70
    64
 62
     7
  6
CONTINUOUS
  0
LAYER
  2
195
 70
    64
 62
     7
  6
CONTINUOUS
  0
LAYER
  2
196
 70
    64
 62
     7
  6
CONTINUOUS
  0
LAYER
  2
197
 70
    64
 62
     7
  6
CONTINUOUS
  0
LAYER
  2
198
 70
    64
 62
     7
  6
CONTINUOUS
  0
LAYER
  2
199
 70
    64
 62
     7
  6
CONTINUOUS
  0
LAYER
  2
200
 70
    64
 62
     7
  6
CONTINUOUS
  0
LAYER
  2
201
 70
    64
 62
     7
  6
CONTINUOUS
  0
LAYER
  2
202
 70
    64
 62
     7
  6
CONTINUOUS
  0
LAYER
  2
203
 70
    64
 62
     7
  6
CONTINUOUS
  0
LAYER
  2
204
 70
    64
 62
     7
  6
CONTINUOUS
  0
LAYER
  2
205
 70
    64
 62
     7
  6
CONTINUOUS
  0
LAYER
  2
206
 70
    64
 62
     7
  6
CONTINUOUS
  0
LAYER
  2
207
 70
    64
 62
     7
  6
CONTINUOUS
  0
LAYER
  2
208
 70
    64
 62
     7
  6
CONTINUOUS
  0
LAYER
  2
209
 70
    64
 62
     7
  6
CONTINUOUS
  0
LAYER
  2
210
 70
    64
 62
     7
  6
CONTINUOUS
  0
LAYER
  2
211
 70
    64
 62
     7
  6
CONTINUOUS
  0
LAYER
  2
212
 70
    64
 62
     7
  6
CONTINUOUS
  0
LAYER
  2
213
 70
    64
 62
     7
  6
CONTINUOUS
  0
LAYER
  2
214
 70
    64
 62
     7
  6
CONTINUOUS
  0
LAYER
  2
215
 70
    64
 62
     7
  6
CONTINUOUS
  0
LAYER
  2
216
 70
    64
 62
     7
  6
CONTINUOUS
  0
LAYER
  2
217
 70
    64
 62
     7
  6
CONTINUOUS
  0
LAYER
  2
218
 70
    64
 62
     7
  6
CONTINUOUS
  0
LAYER
  2
219
 70
    64
 62
     7
  6
CONTINUOUS
  0
LAYER
  2
220
 70
    64
 62
     7
  6
CONTINUOUS
  0
LAYER
  2
221
 70
    64
 62
     7
  6
CONTINUOUS
  0
LAYER
  2
222
 70
    64
 62
     7
  6
CONTINUOUS
  0
LAYER
  2
223
 70
    64
 62
     7
  6
CONTINUOUS
  0
LAYER
  2
224
 70
    64
 62
     7
  6
CONTINUOUS
  0
LAYER
  2
225
 70
    64
 62
     7
  6
CONTINUOUS
  0
LAYER
  2
226
 70
    64
 62
     7
  6
CONTINUOUS
  0
LAYER
  2
227
 70
    64
 62
     7
  6
CONTINUOUS
  0
LAYER
  2
228
 70
    64
 62
     7
  6
CONTINUOUS
  0
LAYER
  2
229
 70
    64
 62
     7
  6
CONTINUOUS
  0
LAYER
  2
230
 70
    64
 62
     7
  6
CONTINUOUS
  0
LAYER
  2
231
 70
    64
 62
     7
  6
CONTINUOUS
  0
LAYER
  2
232
 70
    64
 62
     7
  6
CONTINUOUS
  0
LAYER
  2
233
 70
    64
 62
     7
  6
CONTINUOUS
  0
LAYER
  2
234
 70
    64
 62
     7
  6
CONTINUOUS
  0
LAYER
  2
235
 70
    64
 62
     7
  6
CONTINUOUS
  0
LAYER
  2
236
 70
    64
 62
     7
  6
CONTINUOUS
  0
LAYER
  2
237
 70
    64
 62
     7
  6
CONTINUOUS
  0
LAYER
  2
238
 70
    64
 62
     7
  6
CONTINUOUS
  0
LAYER
  2
239
 70
    64
 62
     7
  6
CONTINUOUS
  0
LAYER
  2
240
 70
    64
 62
     7
  6
CONTINUOUS
  0
LAYER
  2
241
 70
    64
 62
     7
  6
CONTINUOUS
  0
LAYER
  2
242
 70
    64
 62
     7
  6
CONTINUOUS
  0
LAYER
  2
243
 70
    64
 62
     7
  6
CONTINUOUS
  0
LAYER
  2
244
 70
    64
 62
     7
  6
CONTINUOUS
  0
LAYER
  2
245
 70
    64
 62
     7
  6
CONTINUOUS
  0
LAYER
  2
246
 70
    64
 62
     7
  6
CONTINUOUS
  0
LAYER
  2
247
 70
    64
 62
     7
  6
CONTINUOUS
  0
LAYER
  2
248
 70
    64
 62
     7
  6
CONTINUOUS
  0
LAYER
  2
249
 70
    64
 62
     7
  6
CONTINUOUS
  0
LAYER
  2
250
 70
    64
 62
     7
  6
CONTINUOUS
  0
LAYER
  2
251
 70
    64
 62
     7
  6
CONTINUOUS
  0
LAYER
  2
252
 70
    64
 62
     7
  6
CONTINUOUS
  0
LAYER
  2
253
 70
    64
 62
     7
  6
CONTINUOUS
  0
LAYER
  2
254
 70
    64
 62
     7
  6
CONTINUOUS
  0
LAYER
  2
255
 70
    64
 62
     7
  6
CONTINUOUS
  0
ENDTAB
  0
TABLE
  2
STYLE
 70
     2
  0
STYLE
  2
STANDARD
 70
    64
 40
0.0
 41
1.0
 50
0.0
 71
     0
 42
3.000000
  3
TXT
  4
BIGFONT
  0
ENDTAB
  0
ENDSEC
  0
SECTION
  2
ENTITIES
  0
LINE
  8
0
  6
DASHDOT
 62
     3
 10
 39.999992370605469
 20
-78.445991516113281
 11
 39.999992370605469
 21
-73.309280395507813
  0
LINE
  8
0
  6
DASHDOT
 62
     3
 10
 40
 20
 43.557708740234375
 11
 40
 21
 62.687931060791016
  0
LINE
  8
0
  6
CONTINUOUS
 62
     3
 10
-46.199989318847656
 20
 76.045173645019531
 11
 46.799991607666016
 21
 76.045173645019531
  0
LINE
  8
0
  6
CONTINUOUS
 62
     3
 10
 46.799991607666016
 20
 76.045173645019531
 11
 46.799991607666016
 21
 29.045169830322266
  0
LINE
  8
0
  6
CONTINUOUS
 62
     3
 10
 46.799991607666016
 20
 29.045169830322266
 11
-46.199989318847656
 21
 29.045169830322266
  0
LINE
  8
0
  6
CONTINUOUS
 62
     3
 10
-46.199989318847656
 20
 29.045169830322266
 11
-46.199989318847656
 21
 76.045173645019531
  0
LINE
  8
0
  6
DASHDOT
 62
     3
 10
-48.657051086425781
 20
 65.045166015625
 11
 49.875003814697266
 21
 65.045166015625
  0
LINE
  8
0
  6
DASHDOT
 62
     3
 10
-48.713142395019531
 20
 40.045166015625
 11
 49.875003814697266
 21
 40.045166015625
  0
LINE
  8
0
  6
DOT
 62
     3
 10
-45.000007629394531
 20
 29.045169830322266
 11
-45.000007629394531
 21
 31.795166015625
  0
LINE
  8
0
  6
CONTINUOUS
 62
     3
 10
-45.000007629394531
 20
 31.795166015625
 11
-45.000007629394531
 21
 34.045162200927734
  0
LINE
  8
0
  6
DOT
 62
     3
 10
-45.000007629394531
 20
 34.045162200927734
 11
-45.000007629394531
 21
 46.045162200927734
  0
LINE
  8
0
  6
CONTINUOUS
 62
     3
 10
-45.000007629394531
 20
 46.045162200927734
 11
-45.000007629394531
 21
 48.295169830322266
  0
LINE
  8
0
  6
DOT
 62
     3
 10
-45.000007629394531
 20
 48.295169830322266
 11
-45.000007629394531
 21
 57.295166015625
  0
LINE
  8
0
  6
DOT
 62
     3
 10
-45.000007629394531
 20
 73.045166015625
 11
-45.000007629394531
 21
 76.045173645019531
  0
LINE
  8
0
  6
CONTINUOUS
 62
     3
 10
-46.199989318847656
 20
 46.045162200927734
 11
-42.199989318847656
 21
 46.045162200927734
  0
LINE
  8
0
  6
CONTINUOUS
 62
     3
 10
-41.199989318847656
 20
 45.045158386230469
 11
-41.199989318847656
 21
 35.045162200927734
  0
ARC
  8
0
  6
CONTINUOUS
 62
     3
 10
-42.199989318847656
 20
 45.045158386230469
 40
 1
 50
 0
 51
 90.000004039712721
  0
LINE
  8
0
  6
CONTINUOUS
 62
     3
 10
-42.199989318847656
 20
 34.045162200927734
 11
-46.199989318847656
 21
 34.045162200927734
  0
ARC
  8
0
  6
CONTINUOUS
 62
     3
 10
-42.199989318847656
 20
 35.045162200927734
 40
 1
 50
-90.000000851989171
 51
 0
  0
LINE
  8
0
  6
CONTINUOUS
 62
     3
 10
-46.199989318847656
 20
 48.045169830322266
 11
-31.699958801269531
 21
 48.045169830322266
  0
LINE
  8
0
  6
CONTINUOUS
 62
     3
 10
-28.699958801269531
 20
 45.045169830322266
 11
-28.699958801269531
 21
 35.045169830322266
  0
ARC
  8
0
  6
CONTINUOUS
 62
     3
 10
-31.699958801269531
 20
 45.045169830322266
 40
 3
 50
 0
 51
 90.000004039712721
  0
LINE
  8
0
  6
CONTINUOUS
 62
     3
 10
-31.699958801269531
 20
 32.045173645019531
 11
-46.199989318847656
 21
 32.045166015625
  0
ARC
  8
0
  6
CONTINUOUS
 62
     3
 10
-31.699958801269531
 20
 35.045169830322266
 40
 3
 50
-89.99997353123203
 51
 0
  0
LINE
  8
0
  6
DOT
 62
     3
 10
 45.599998474121094
 20
 76.045173645019531
 11
 45.599998474121094
 21
 69.645164489746094
  0
LINE
  8
0
  6
DOT
 62
     3
 10
 45.599998474121094
 20
 60.445171356201172
 11
 45.599998474121094
 21
 44.645164489746094
  0
LINE
  8
0
  6
CONTINUOUS
 62
     3
 10
 79.399988174438477
 20
 44.645164489746094
 11
 79.399988174438477
 21
 35.445171356201172
  0
LINE
  8
0
  6
DOT
 62
     3
 10
 45.599998474121094
 20
 35.445171356201172
 11
 45.599998474121094
 21
 29.045169830322266
  0
LINE
  8
0
  6
CONTINUOUS
 62
     3
 10
 29.29998779296875
 20
 45.045166015625
 11
 34.29998779296875
 21
 45.045166015625
  0
LINE
  8
0
  6
CONTINUOUS
 62
     3
 10
 34.29998779296875
 20
 46.245162963867188
 11
 34.29998779296875
 21
 33.845161437988281
  0
LINE
  8
0
  6
CONTINUOUS
 62
     3
 10
 34.29998779296875
 20
 35.045162200927734
 11
 29.29998779296875
 21
 35.045162200927734
  0
LINE
  8
0
  6
CONTINUOUS
 62
     3
 10
 29.29998779296875
 20
 33.845161437988281
 11
 29.29998779296875
 21
 46.245162963867188
  0
LINE
  8
0
  6
CONTINUOUS
 62
     3
 10
 79.399988174438477
 20
 44.645164489746094
 11
 76.199989318847656
 21
 44.645164489746094
  0
LINE
  8
0
  6
CONTINUOUS
 62
     3
 10
 76.199989318847656
 20
 35.445171356201172
 11
 79.399988174438477
 21
 35.445171356201172
  0
LINE
  8
0
  6
DOT
 62
     3
 10
 34.29998779296875
 20
 46.545162200927734
 11
 29.29998779296875
 21
 46.545162200927734
  0
LINE
  8
0
  6
DOT
 62
     3
 10
 29.29998779296875
 20
 46.545162200927734
 11
 29.29998779296875
 21
 46.245162963867188
  0
LINE
  8
0
  6
DOT
 62
     3
 10
 29.29998779296875
 20
 33.845161437988281
 11
 29.29998779296875
 21
 33.545162200927734
  0
LINE
  8
0
  6
DOT
 62
     3
 10
 29.29998779296875
 20
 33.545162200927734
 11
 34.29998779296875
 21
 33.545162200927734
  0
LINE
  8
0
  6
DOT
 62
     3
 10
 34.29998779296875
 20
 33.545162200927734
 11
 34.29998779296875
 21
 33.845161437988281
  0
LINE
  8
0
  6
DOT
 62
     3
 10
 34.29998779296875
 20
 46.245162963867188
 11
 29.29998779296875
 21
 46.245162963867188
  0
LINE
  8
0
  6
DOT
 62
     3
 10
 29.29998779296875
 20
 33.845161437988281
 11
 34.29998779296875
 21
 33.845161437988281
  0
LINE
  8
0
  6
DASHDOT
 62
     7
 10
 0
 20
 80.769256591796875
 11
 0
 21
 7.0851740837097168
  0
LINE
  8
0
  6
DASHDOT
 62
     7
 10
 0
 20
-29.494829177856445
 11
 0
 21
-87.668251037597656
  0
LINE
  8
0
  6
CONTINUOUS
 62
     7
 10
-48.657051086425781
 20
 65.045173645019531
 11
-60.160011291503906
 21
 65.045173645019531
  0
LINE
  8
0
  6
CONTINUOUS
 62
     7
 10
-48.657051086425781
 20
 40.045166015625
 11
-60.160011291503906
 21
 40.045166015625
  0
LINE
  8
0
  6
CONTINUOUS
 62
     7
 10
-47.235588073730469
 20
-50.454826354980469
 11
-60.159980773925781
 21
-50.454826354980469
  0
LINE
  8
0
  6
CONTINUOUS
 62
     7
 10
-48.596977233886719
 20
-76.454833984375
 11
-60.159980773925781
 21
-76.454833984375
  0
LINE
  8
0
  6
CONTINUOUS
 62
     7
 10
-46.199989318847656
 20
 27.045167922973633
 11
-46.199989318847656
 21
 2.0851771831512451
  0
LINE
  8
0
  6
CONTINUOUS
 62
     7
 10
 46.799991607666016
 20
 27.497529983520508
 11
 46.799991607666016
 21
 2.0851771831512451
  0
LINE
  8
0
  6
CONTINUOUS
 62
     7
 10
 51.004875183105469
 20
 52.545169830322266
 11
 63.759998321533203
 21
 52.545169830322266
  0
LINE
  8
0
  6
CONTINUOUS
 62
     7
 10
 48.799999237060547
 20
 76.045173645019531
 11
 63.759998321533203
 21
 76.045173645019531
  0
LINE
  8
0
  6
CONTINUOUS
 62
     3
 10
-45.000038146972656
 20
-52.454837799072266
 11
-45.000038146972656
 21
-45.554824829101563
  0
ARC
  8
0
  6
CONTINUOUS
 62
     3
 10
-44.700035095214844
 20
-45.554824829101563
 40
 0.300000011920929
 50
 90.000004039712721
 51
-179.9999980615126
  0
LINE
  8
0
  6
CONTINUOUS
 62
     3
 10
-44.700035095214844
 20
-45.254840850830078
 11
-41.200019836425781
 21
-45.254840850830078
  0
LINE
  8
0
  6
CONTINUOUS
 62
     3
 10
-41.200019836425781
 20
-44.054832458496094
 11
-44.700035095214844
 21
-44.054832458496094
  0
LINE
  8
0
  6
CONTINUOUS
 62
     3
 10
-46.200035095214844
 20
-45.554824829101563
 11
-46.200035095214844
 21
-52.454837799072266
  0
LINE
  8
0
  6
CONTINUOUS
 62
     3
 10
-46.200035095214844
 20
-52.454837799072266
 11
-46.200019836425781
 21
-74.954841613769531
  0
ARC
  8
0
  6
CONTINUOUS
 62
     3
 10
-44.699989318847656
 20
-74.954841613769531
 40
 0.300000011920929
 50
-179.9999980615126
 51
-90.000000851989171
  0
ARC
  8
0
  6
CONTINUOUS
 62
     3
 10
-44.700035095214844
 20
-45.554824829101563
 40
 1.5
 50
 90.000004039712721
 51
-179.9999980615126
  0
ARC
  8
0
  6
CONTINUOUS
 62
     3
 10
-44.700035095214844
 20
-51.954830169677734
 40
 1.5
 50
 90.000004039712721
 51
 101.537375367397
  0
ARC
  8
0
  6
DOT
 62
     3
 10
-44.700035095214844
 20
-51.954830169677734
 40
 1.5
 50
 101.537375367397
 51
-179.9999980615126
  0
LINE
  8
0
  6
CONTINUOUS
 62
     3
 10
-44.700035095214844
 20
-50.454837799072266
 11
 45.299980163574219
 21
-50.454837799072266
  0
LINE
  8
0
  6
CONTINUOUS
 62
     3
 10
 46.799980163574219
 20
-51.954830169677734
 11
 46.799980163574219
 21
-74.954841613769531
  0
ARC
  8
0
  6
CONTINUOUS
 62
     3
 10
 45.299980163574219
 20
-74.954841613769531
 40
 1.5
 50
-90.000000851989171
 51
 0
  0
ARC
  8
0
  6
CONTINUOUS
 62
     3
 10
 45.299980163574219
 20
-51.954830169677734
 40
 1.5
 50
 0
 51
 90.000004039712721
  0
LINE
  8
0
  6
CONTINUOUS
 62
     3
 10
 45.599983215332031
 20
-74.954841613769531
 11
 45.599983215332031
 21
-51.954830169677734
  0
ARC
  8
0
  6
CONTINUOUS
 62
     3
 10
 45.299980163574219
 20
-74.954841613769531
 40
 0.300000011920929
 50
-90.000000851989171
 51
 0
  0
ARC
  8
0
  6
CONTINUOUS
 62
     3
 10
 45.299980163574219
 20
-51.954830169677734
 40
 0.300000011920929
 50
 0
 51
 90.000004039712721
  0
LINE
  8
0
  6
CONTINUOUS
 62
     3
 10
-44.700035095214844
 20
-51.654827117919922
 11
 29.299980163574219
 21
-51.654827117919922
  0
LINE
  8
0
  6
DOT
 62
     3
 10
 29.299980163574219
 20
-51.654827117919922
 11
 34.299995422363281
 21
-51.654827117919922
  0
LINE
  8
0
  6
CONTINUOUS
 62
     3
 10
 34.299995422363281
 20
-51.654827117919922
 11
 45.299980163574219
 21
-51.654827117919922
  0
ARC
  8
0
  6
CONTINUOUS
 62
     3
 10
-44.700035095214844
 20
-51.954830169677734
 40
 0.300000011920929
 50
 90.000004039712721
 51
-179.9999980615126
  0
LINE
  8
0
  6
CONTINUOUS
 62
     3
 10
-44.699989318847656
 20
-76.454833984375
 11
-30.700035095214844
 21
-76.454833984375
  0
ARC
  8
0
  6
CONTINUOUS
 62
     3
 10
-44.699989318847656
 20
-74.954841613769531
 40
 1.5
 50
-179.9999980615126
 51
-90.000000851989171
  0
LINE
  8
0
  6
CONTINUOUS
 62
     3
 10
-30.700035095214844
 20
-76.454833984375
 11
-30.700035095214844
 21
-75.254844665527344
  0
LINE
  8
0
  6
CONTINUOUS
 62
     3
 10
-44.699989318847656
 20
-75.254844665527344
 11
-30.700035095214844
 21
-75.254844665527344
  0
LINE
  8
0
  6
DASHDOT
 62
     3
 10
-35.000022888183594
 20
-78.94732666015625
 11
-35.000022888183594
 21
-72.972747802734375
  0
LINE
  8
0
  6
DOT
 62
     3
 10
-37.099998474121094
 20
-75.254844665527344
 11
-37.099998474121094
 21
-76.454833984375
  0
LINE
  8
0
  6
DOT
 62
     3
 10
-32.899986267089844
 20
-75.254844665527344
 11
-32.899986267089844
 21
-76.454833984375
  0
LINE
  8
0
  6
CONTINUOUS
 62
     3
 10
 34.299995422363281
 20
-50.454837799072266
 11
 34.299995422363281
 21
-53.854854583740234
  0
LINE
  8
0
  6
CONTINUOUS
 62
     3
 10
 29.299980163574219
 20
-53.854854583740234
 11
 29.299980163574219
 21
-50.454837799072266
  0
LINE
  8
0
  6
CONTINUOUS
 62
     3
 10
 29.299980163574219
 20
-52.654838562011719
 11
 34.299995422363281
 21
-52.654838562011719
  0
LINE
  8
0
  6
CONTINUOUS
 62
     3
 10
 29.299980163574219
 20
-53.854854583740234
 11
 34.299995422363281
 21
-53.854854583740234
  0
LINE
  8
0
  6
CONTINUOUS
 62
     3
 10
-28.700004577636719
 20
-50.454837799072266
 11
-28.700004577636719
 21
-51.654827117919922
  0
LINE
  8
0
  6
CONTINUOUS
 62
     3
 10
-45.000038146972656
 20
-52.454837799072266
 11
-46.200035095214844
 21
-52.454837799072266
  0
LINE
  8
0
  6
CONTINUOUS
 62
     3
 10
 44.299995422363281
 20
-51.654804229736328
 11
 44.299995422363281
 21
-50.454814910888672
  0
LINE
  8
0
  6
CONTINUOUS
 62
     3
 10
 45.599983215332031
 20
-53.654853820800781
 11
 46.799980163574219
 21
-53.654853820800781
  0
LINE
  8
0
  6
CONTINUOUS
 62
     3
 10
-41.200019836425781
 20
-44.054832458496094
 11
-41.200019836425781
 21
-45.254840850830078
  0
LINE
  8
0
  6
CONTINUOUS
 62
     3
 10
 45.299980163574219
 20
-75.254844665527344
 11
 34.799964904785156
 21
-75.254844665527344
  0
LINE
  8
0
  6
CONTINUOUS
 62
     3
 10
 45.299980163574219
 20
-76.454833984375
 11
 34.799964904785156
 21
-76.454833984375
  0
LINE
  8
0
  6
DOT
 62
     3
 10
 41.999984741210938
 20
-75.254844665527344
 11
 41.999984741210938
 21
-76.454833984375
  0
LINE
  8
0
  6
CONTINUOUS
 62
     3
 10
-45.000038146972656
 20
-51.954830169677734
 11
-45.000007629394531
 21
-74.954841613769531
  0
LINE
  8
0
  6
CONTINUOUS
 62
     3
 10
 34.799964904785156
 20
-75.254844665527344
 11
 34.799964904785156
 21
-76.454833984375
  0
LINE
  8
0
  6
CONTINUOUS
 62
     7
 10
-46.200019836425781
 20
-77.628227233886719
 11
-46.200019836425781
 21
-92.414833068847656
  0
LINE
  8
0
  6
CONTINUOUS
 62
     7
 10
 39.999992370605469
 20
-73.309280395507813
 11
 39.999992370605469
 21
-44.494831085205078
  0
CIRCLE
  8
0
  6
CONTINUOUS
 62
     3
 10
 40
 20
 52.545162200927734
 40
 4.5
  0
LINE
  8
0
  6
DOT
 62
     6
 10
 34.79998779296875
 20
 76.045173645019531
 11
 34.79998779296875
 21
 55.545162200927734
  0
LINE
  8
0
  6
DOT
 62
     6
 10
 34.79998779296875
 20
 55.545162200927734
 11
 35.799980163574219
 21
 54.545162200927734
  0
LINE
  8
0
  6
DOT
 62
     6
 10
 34.79998779296875
 20
 29.045169830322266
 11
 34.79998779296875
 21
 49.545166015625
  0
LINE
  8
0
  6
DOT
 62
     6
 10
 34.79998779296875
 20
 49.545166015625
 11
 35.799980163574219
 21
 50.545166015625
  0
LINE
  8
0
  6
DASHDOT
 62
     3
 10
-35.000007629394531
 20
 68.803192138671875
 11
-35.000007629394531
 21
 36.239006042480469
  0
LINE
  8
0
  6
CONTINUOUS
 62
     7
 10
 44.892810821533203
 20
 87.438690185546875
 11
 56.903865814208984
 21
 87.438690185546875
  0
TEXT
  8
0
  6
CONTINUOUS
 62
     7
 10
 50.274246215820313
 20
 88.188690185546875
 11
 54.774246215820313
 21
 88.188690185546875
 40
 2.5
 41
 0.8
  1
φ９
 50
 0
 72
  5
  0
LINE
  8
0
  6
CONTINUOUS
 62
     7
 10
 44.892810821533203
 20
 87.438690185546875
 11
 40.6248779296875
 21
 57.001564025878906
  0
LINE
  8
0
  6
CONTINUOUS
 62
     7
 10
 40.6248779296875
 20
 57.001564025878906
 11
 41.796205866063715
 21
 59.763445787552392
  0
LINE
  8
0
  6
CONTINUOUS
 62
     7
 10
 40.6248779296875
 20
 57.001564025878906
 11
 40.258336797914964
 21
 59.979087761925172
  0
LINE
  8
0
  6
CONTINUOUS
 62
     6
 10
 39.999992370605469
 20
 54.545162200927734
 11
 35.799980163574219
 21
 54.545162200927734
  0
LINE
  8
0
  6
CONTINUOUS
 62
     6
 10
 39.999992370605469
 20
 50.545166015625
 11
 35.799980163574219
 21
 50.545166015625
  0
LINE
  8
0
  6
CONTINUOUS
 62
     7
 10
-30.163444519042969
 20
 82.438690185546875
 11
-15.956916809082031
 21
 82.438690185546875
  0
TEXT
  8
0
  6
CONTINUOUS
 62
     7
 10
-27.782020568847656
 20
 83.188690185546875
 11
-18.282020568847656
 21
 83.188690185546875
 40
 2.5
 41
 0.8
  1
２－φ４
 50
 0
 72
  5
  0
TEXT
  8
0
  6
CONTINUOUS
 62
     7
 10
-33.458308410644534
 20
 87.938690185546875
 11
-19.458308410644531
 21
 87.938690185546875
 40
 3
 41
 0.8
  1
２－切抜き
 50
 0
 72
  5
  0
LINE
  8
0
  6
CONTINUOUS
 62
     7
 10
-35.370246887207031
 20
 87.438697814941406
 11
-18.950370788574219
 21
 87.438697814941406
  0
LINE
  8
0
  6
CONTINUOUS
 62
     7
 10
-35.370246887207031
 20
 87.438697814941406
 11
-37.982185363769531
 21
 67.289344787597656
  0
LINE
  8
0
  6
CONTINUOUS
 62
     7
 10
-37.982185363769531
 20
 67.289344787597656
 11
-36.839651896767165
 21
 70.06326210373733
  0
LINE
  8
0
  6
CONTINUOUS
 62
     7
 10
-37.982185363769531
 20
 67.289344787597656
 11
-38.379681014741408
 21
 70.262894384873348
  0
TEXT
  8
0
  6
CONTINUOUS
 62
     7
 10
-9.0000213623046879
 20
-94.690696716308594
 11
 8.9999786376953139
 21
-94.690696716308594
 40
 3.5
 41
 0.8
  1
（断面図）
 50
 0
 72
  5
  0
LINE
  8
0
  6
DASHDOT
 62
     7
 10
-48.657051086425781
 20
 52.545166015625
 11
 51.004875183105469
 21
 52.545166015625
  0
LINE
  8
0
  6
DOT
 62
     3
 10
 34.29998779296875
 20
 46.545162200927734
 11
 34.29998779296875
 21
 46.245162963867188
  0
LINE
  8
0
  6
CONTINUOUS
 62
     3
 10
 45.599998474121094
 20
 69.645164489746094
 11
 45.599998474121094
 21
 60.445171356201172
  0
LINE
  8
0
  6
CONTINUOUS
 62
     3
 10
 29.29998779296875
 20
 70.045166015625
 11
 34.29998779296875
 21
 70.045166015625
  0
LINE
  8
0
  6
CONTINUOUS
 62
     3
 10
 34.29998779296875
 20
 71.245162963867188
 11
 34.29998779296875
 21
 58.845161437988281
  0
LINE
  8
0
  6
CONTINUOUS
 62
     3
 10
 34.29998779296875
 20
 60.045162200927734
 11
 29.29998779296875
 21
 60.045162200927734
  0
LINE
  8
0
  6
CONTINUOUS
 62
     3
 10
 29.29998779296875
 20
 58.845161437988281
 11
 29.29998779296875
 21
 71.245162963867188
  0
LINE
  8
0
  6
CONTINUOUS
 62
     3
 10
 46.799991607666016
 20
 69.645164489746094
 11
 44.29998779296875
 21
 69.645164489746094
  0
LINE
  8
0
  6
CONTINUOUS
 62
     3
 10
 44.29998779296875
 20
 69.645164489746094
 11
 44.29998779296875
 21
 60.445171356201172
  0
LINE
  8
0
  6
CONTINUOUS
 62
     3
 10
 44.29998779296875
 20
 60.445171356201172
 11
 46.799991607666016
 21
 60.445171356201172
  0
LINE
  8
0
  6
DOT
 62
     3
 10
 34.29998779296875
 20
 71.545166015625
 11
 29.29998779296875
 21
 71.545166015625
  0
LINE
  8
0
  6
DOT
 62
     3
 10
 29.29998779296875
 20
 71.545166015625
 11
 29.29998779296875
 21
 71.245162963867188
  0
LINE
  8
0
  6
DOT
 62
     3
 10
 29.29998779296875
 20
 58.845161437988281
 11
 29.29998779296875
 21
 58.545162200927734
  0
LINE
  8
0
  6
DOT
 62
     3
 10
 29.29998779296875
 20
 58.545162200927734
 11
 34.29998779296875
 21
 58.545162200927734
  0
LINE
  8
0
  6
DOT
 62
     3
 10
 34.29998779296875
 20
 58.545162200927734
 11
 34.29998779296875
 21
 58.845161437988281
  0
LINE
  8
0
  6
DOT
 62
     3
 10
 34.29998779296875
 20
 71.245162963867188
 11
 29.29998779296875
 21
 71.245162963867188
  0
LINE
  8
0
  6
DOT
 62
     3
 10
 29.29998779296875
 20
 58.845161437988281
 11
 34.29998779296875
 21
 58.845161437988281
  0
LINE
  8
0
  6
DOT
 62
     3
 10
 34.29998779296875
 20
 71.545166015625
 11
 34.29998779296875
 21
 71.245162963867188
  0
CIRCLE
  8
0
  6
CONTINUOUS
 62
     6
 10
-35.000007629394531
 20
 65.045166015625
 40
 2
  0
ARC
  8
0
  6
CONTINUOUS
 62
     6
 10
 39.999992370605469
 20
 52.545166015625
 40
 2
 50
-90.000000851989171
 51
 90.000004039712721
  0
LINE
  8
0
  6
CONTINUOUS
 62
     3
 10
-45.000007629394531
 20
 57.045166015625
 11
-45.000007629394531
 21
 59.045162200927734
  0
LINE
  8
0
  6
DOT
 62
     3
 10
-45.000007629394531
 20
 59.045162200927734
 11
-45.000007629394531
 21
 71.045166015625
  0
LINE
  8
0
  6
CONTINUOUS
 62
     3
 10
-45.000007629394531
 20
 71.045166015625
 11
-45.000007629394531
 21
 73.045166015625
  0
LINE
  8
0
  6
CONTINUOUS
 62
     3
 10
-46.199989318847656
 20
 71.045166015625
 11
-42.199989318847656
 21
 71.045166015625
  0
LINE
  8
0
  6
CONTINUOUS
 62
     3
 10
-41.199989318847656
 20
 70.045158386230469
 11
-41.199989318847656
 21
 60.045162200927734
  0
ARC
  8
0
  6
CONTINUOUS
 62
     3
 10
-42.199989318847656
 20
 70.045158386230469
 40
 1
 50
 0
 51
 90.000004039712721
  0
LINE
  8
0
  6
CONTINUOUS
 62
     3
 10
-42.199989318847656
 20
 59.045162200927734
 11
-46.199989318847656
 21
 59.045162200927734
  0
ARC
  8
0
  6
CONTINUOUS
 62
     3
 10
-42.199989318847656
 20
 60.045162200927734
 40
 1
 50
-90.000000851989171
 51
 0
  0
LINE
  8
0
  6
CONTINUOUS
 62
     3
 10
-46.199989318847656
 20
 73.045166015625
 11
-31.699958801269531
 21
 73.045166015625
  0
LINE
  8
0
  6
CONTINUOUS
 62
     3
 10
-28.699958801269531
 20
 70.045166015625
 11
-28.699958801269531
 21
 60.045169830322266
  0
ARC
  8
0
  6
CONTINUOUS
 62
     3
 10
-31.699958801269531
 20
 70.045166015625
 40
 3
 50
 0
 51
 90.000004039712721
  0
LINE
  8
0
  6
CONTINUOUS
 62
     3
 10
-31.699958801269531
 20
 57.045169830322266
 11
-46.199989318847656
 21
 57.045166015625
  0
ARC
  8
0
  6
CONTINUOUS
 62
     3
 10
-31.699958801269531
 20
 60.045169830322266
 40
 3
 50
-89.99997353123203
 51
 0
  0
LINE
  8
0
  6
CONTINUOUS
 62
     7
 10
-35.000007629394531
 20
-44.494831085205078
 11
-35.000022888183594
 21
-72.972747802734375
  0
LINE
  8
0
  6
CONTINUOUS
 62
     7
 10
-35.000022888183594
 20
-78.94732666015625
 11
-35.000022888183594
 21
-87.414840698242187
  0
LINE
  8
0
  6
CONTINUOUS
 62
     7
 10
-46.200019836425781
 20
-86.454841613769531
 11
-35.000022888183594
 21
-86.454841613769531
  0
LINE
  8
0
  6
CONTINUOUS
 62
     7
 10
-46.200019836425781
 20
-86.454841613769531
 11
-43.302242357558576
 21
-87.231298749077098
  0
LINE
  8
0
  6
CONTINUOUS
 62
     7
 10
-46.200019836425781
 20
-86.454841613769531
 11
-43.302242357558576
 21
-85.678384478461965
  0
LINE
  8
0
  6
CONTINUOUS
 62
     7
 10
-35.000022888183594
 20
-86.454841613769531
 11
-37.897800367050799
 21
-85.678384478461965
  0
LINE
  8
0
  6
CONTINUOUS
 62
     7
 10
-35.000022888183594
 20
-86.454841613769531
 11
-37.897800367050799
 21
-87.231298749077098
  0
TEXT
  8
0
  6
CONTINUOUS
 62
     7
 10
-44.550007629394528
 20
-85.494850158691406
 11
-36.65000762939453
 21
-85.494850158691406
 40
 2
 41
 0.8
  1
１１．２
 50
 0
 72
  5
  0
LINE
  8
0
  6
CONTINUOUS
 62
     7
 10
-45.180015563964844
 20
-86.454841613769531
 11
-35.000022888183594
 21
-86.454841613769531
  0
LINE
  8
0
  6
CONTINUOUS
 62
     7
 10
-35.000022888183594
 20
-86.454841613769531
 11
-37.897800367050799
 21
-85.678384478461965
  0
LINE
  8
0
  6
CONTINUOUS
 62
     7
 10
-35.000022888183594
 20
-86.454841613769531
 11
-37.897800367050799
 21
-87.231298749077098
  0
LINE
  8
0
  6
CONTINUOUS
 62
     7
 10
-35.000022888183594
 20
-86.454841613769531
 11
-30.700035095214844
 21
-86.454841613769531
  0
TEXT
  8
0
  6
CONTINUOUS
 62
     7
 10
-29.100010681152344
 20
-85.494850158691406
 11
-23.300010681152344
 21
-85.494850158691406
 40
 2
 41
 0.8
  1
４．３
 50
 0
 72
  5
  0
LINE
  8
0
  6
CONTINUOUS
 62
     7
 10
-21.700019836425781
 20
-86.454841613769531
 11
-30.700035095214844
 21
-86.454841613769531
  0
LINE
  8
0
  6
CONTINUOUS
 62
     7
 10
-30.700035095214844
 20
-86.454841613769531
 11
-27.802257616347639
 21
-87.231298749077098
  0
LINE
  8
0
  6
CONTINUOUS
 62
     7
 10
-30.700035095214844
 20
-86.454841613769531
 11
-27.802257616347639
 21
-85.678384478461965
  0
LINE
  8
0
  6
CONTINUOUS
 62
     6
 10
-30.699989318847656
 20
 31.966733932495117
 11
-30.699989318847656
 21
 48.123607635498047
  0
LINE
  8
0
  6
DOT
 62
     6
 10
-30.699989318847656
 20
 29.045169830322266
 11
-30.699989318847656
 21
 31.966733932495117
  0
LINE
  8
0
  6
DOT
 62
     6
 10
-30.699989318847656
 20
 48.123607635498047
 11
-30.699989318847656
 21
 57.216732025146484
  0
LINE
  8
0
  6
CONTINUOUS
 62
     6
 10
-30.699989318847656
 20
 57.216732025146484
 11
-30.699989318847656
 21
 72.873603820800781
  0
LINE
  8
0
  6
DOT
 62
     6
 10
-30.699989318847656
 20
 72.873603820800781
 11
-30.699989318847656
 21
 76.045173645019531
  0
CIRCLE
  8
0
  6
CONTINUOUS
 62
     6
 10
-35.000007629394531
 20
 40.045166015625
 40
 2
  0
LINE
  8
0
  6
CONTINUOUS
 62
     7
 10
-30.163444519042969
 20
 82.438690185546875
 11
-34.464210510253906
 21
 66.972061157226563
  0
LINE
  8
0
  6
CONTINUOUS
 62
     7
 10
-34.464210510253906
 20
 66.972061157226563
 11
-32.939812955548462
 21
 69.555897857795713
  0
LINE
  8
0
  6
CONTINUOUS
 62
     7
 10
-34.464210510253906
 20
 66.972061157226563
 11
-34.435961852696686
 21
 69.971928156502727
  0
LINE
  8
0
  6
DASHDOT
 62
     7
 10
 109.27969181537628
 20
 52.545166015625
 11
 69.792514801025391
 21
 52.545166015625
  0
LINE
  8
0
  6
CONTINUOUS
 62
     3
 10
 102.19998836517334
 20
 76.045173645019531
 11
 76.199989318847656
 21
 76.045173645019531
  0
LINE
  8
0
  6
CONTINUOUS
 62
     3
 10
 76.199989318847656
 20
 76.045173645019531
 11
 76.199989318847656
 21
 29.045173645019531
  0
LINE
  8
0
  6
CONTINUOUS
 62
     3
 10
 76.199989318847656
 20
 29.045173645019531
 11
 102.19998836517334
 21
 29.045173645019531
  0
LINE
  8
0
  6
CONTINUOUS
 62
     3
 10
 102.19998836517334
 20
 29.045173645019531
 11
 102.19998836517334
 21
 76.045173645019531
  0
LINE
  8
0
  6
DASHDOT
 62
     3
 10
 72.821357727050781
 20
 65.045166015625
 11
 105.46558928489685
 21
 65.045166015625
  0
LINE
  8
0
  6
DASHDOT
 62
     3
 10
 72.821357727050781
 20
 40.045166015625
 11
 105.46558928489685
 21
 40.045166015625
  0
LINE
  8
0
  6
DOT
 62
     3
 10
 77.399986267089844
 20
 76.045173645019531
 11
 77.399986267089844
 21
 69.645164489746094
  0
LINE
  8
0
  6
DOT
 62
     3
 10
 77.399986267089844
 20
 60.445171356201172
 11
 77.399986267089844
 21
 44.645164489746094
  0
LINE
  8
0
  6
CONTINUOUS
 62
     3
 10
 77.399986267089844
 20
 44.645164489746094
 11
 77.399986267089844
 21
 35.445171356201172
  0
LINE
  8
0
  6
DOT
 62
     3
 10
 77.399986267089844
 20
 35.445171356201172
 11
 77.399986267089844
 21
 29.045173645019531
  0
LINE
  8
0
  6
CONTINUOUS
 62
     3
 10
 102.19998836517334
 20
 70.145164489746094
 11
 96.899988174438477
 21
 70.145164489746094
  0
LINE
  8
0
  6
CONTINUOUS
 62
     3
 10
 96.899988174438477
 20
 70.145164489746094
 11
 96.899988174438477
 21
 59.945167541503906
  0
LINE
  8
0
  6
CONTINUOUS
 62
     3
 10
 96.899988174438477
 20
 59.945167541503906
 11
 102.19998836517334
 21
 59.945167541503906
  0
LINE
  8
0
  6
DOT
 62
     3
 10
 100.99997758865356
 20
 29.045173645019531
 11
 100.99997758865356
 21
 34.945171356201172
  0
LINE
  8
0
  6
DOT
 62
     3
 10
 100.99997758865356
 20
 45.145168304443359
 11
 100.99997758865356
 21
 59.945167541503906
  0
LINE
  8
0
  6
CONTINUOUS
 62
     3
 10
 100.99997758865356
 20
 59.945167541503906
 11
 100.99997758865356
 21
 70.145164489746094
  0
LINE
  8
0
  6
DOT
 62
     3
 10
 100.99997758865356
 20
 70.145164489746094
 11
 100.99997758865356
 21
 76.045173645019531
  0
LINE
  8
0
  6
CONTINUOUS
 62
     3
 10
 102.19998836517334
 20
 45.145168304443359
 11
 96.899988174438477
 21
 45.145168304443359
  0
LINE
  8
0
  6
CONTINUOUS
 62
     3
 10
 96.899988174438477
 20
 45.145168304443359
 11
 96.899988174438477
 21
 34.945171356201172
  0
LINE
  8
0
  6
CONTINUOUS
 62
     3
 10
 96.899988174438477
 20
 34.945171356201172
 11
 102.19998836517334
 21
 34.945171356201172
  0
LINE
  8
0
  6
CONTINUOUS
 62
     3
 10
 100.99997758865356
 20
 34.945171356201172
 11
 100.99997758865356
 21
 45.145168304443359
  0
LINE
  8
0
  6
CONTINUOUS
 62
     3
 10
 79.399988174438477
 20
 69.645164489746094
 11
 79.399988174438477
 21
 60.445171356201172
  0
LINE
  8
0
  6
CONTINUOUS
 62
     3
 10
 79.399988174438477
 20
 69.645164489746094
 11
 76.199989318847656
 21
 69.645164489746094
  0
LINE
  8
0
  6
CONTINUOUS
 62
     3
 10
 76.199989318847656
 20
 60.445171356201172
 11
 79.399988174438477
 21
 60.445171356201172
  0
LINE
  8
0
  6
CONTINUOUS
 62
     3
 10
 77.399986267089844
 20
 69.645164489746094
 11
 77.399986267089844
 21
 60.445171356201172
  0
LINE
  8
0
  6
CONTINUOUS
 62
     3
 10
 45.599998474121094
 20
 44.645168304443359
 11
 45.599998474121094
 21
 35.445175170898437
  0
LINE
  8
0
  6
CONTINUOUS
 62
     3
 10
 46.799991607666016
 20
 44.645168304443359
 11
 44.29998779296875
 21
 44.645168304443359
  0
LINE
  8
0
  6
CONTINUOUS
 62
     3
 10
 44.29998779296875
 20
 44.645168304443359
 11
 44.29998779296875
 21
 35.445175170898437
  0
LINE
  8
0
  6
CONTINUOUS
 62
     3
 10
 44.29998779296875
 20
 35.445175170898437
 11
 46.799991607666016
 21
 35.445175170898437
  0
LINE
  8
0
  6
CONTINUOUS
 62
     3
 10
 46.799980163574219
 20
-71.154838562011719
 11
 45.599979400634766
 21
-71.154838562011719
  0
LINE
  8
0
  6
CONTINUOUS
 62
     3
 10
 44.299980163574219
 20
-76.454833984375
 11
 44.299980163574219
 21
-75.254837036132812
  0
LINE
  8
0
  6
DOT
 62
     3
 10
 35.499992370605469
 20
-50.454837799072266
 11
 35.499992370605469
 21
-51.654842376708984
  0
LINE
  8
0
  6
DOT
 62
     3
 10
 44.499992370605469
 20
-50.454837799072266
 11
 44.499992370605469
 21
-51.654842376708984
  0
LINE
  8
256
  6
CONTINUOUS
 62
     7
 10
-193.30000000000001
 20
 124.99999645625348
 11
-93.300000000000011
 21
 124.99999645625348
  0
LINE
  8
256
  6
CONTINUOUS
 62
     7
 10
-93.300000000000011
 20
 124.9999964562535
 11
-93.300000000000011
 21
 136.99999721136808
  0
TEXT
  8
256
  6
CONTINUOUS
 62
     7
 10
-188.30000000000001
 20
 127.99999604817611
 11
-140.30000000000001
 21
 127.99999604817611
 40
 6
 41
 1
  1
ＬＢ－Ｄ７１１０
 50
 0
 72
  5
  0
LINE
  8
256
  6
CONTINUOUS
 62
     7
 10
 104.99998474121094
 20
-121.5
 11
 200
 21
-121.5
  0
LINE
  8
256
  6
CONTINUOUS
 62
     7
 10
 170.99998474121094
 20
-109.5
 11
 170.99998474121094
 21
-121.5
  0
TEXT
  8
256
  6
CONTINUOUS
 62
     7
 10
 112.5
 20
-134.25
 11
 160.5
 21
-134.25
 40
 6
 41
 1
  1
ＢＨ２６ＳＰ－２
 50
 0
 72
  5
  0
TEXT
  8
256
  6
CONTINUOUS
 62
     7
 10
 117.99998474121094
 20
-119.75
 11
 157.99998474121094
 21
-119.75
 40
 5
 41
 0.8
  1
分岐ＭＣＣＢ取付金具
 50
 0
 72
  5
  0
TEXT
  8
256
  6
CONTINUOUS
 62
     7
 10
 106.29998779296875
 20
-112.4499633789062
 11
 111.29998779296875
 21
-112.4499633789062
 40
 2.5
 41
 0.8
  1
品名
 50
 0
 72
  5
  0
TEXT
  8
256
  6
CONTINUOUS
 62
     7
 10
 106.29998779296875
 20
-124.45003051757811
 11
 111.29998779296875
 21
-124.45003051757811
 40
 2.5
 41
 0.8
  1
品番
 50
 0
 72
  5
  0
TEXT
  8
256
  6
CONTINUOUS
 62
     7
 10
 180.55000000000001
 20
-117.25
 11
 189.94999999999999
 21
-117.25
 40
 3.5
 41
 0.8
  1
２個用
 50
 0
 72
  5
  0
LINE
  8
256
  6
CONTINUOUS
 62
     7
 10
 104.99998474121094
 20
-139.5
 11
 104.99998474121094
 21
-109.5
  0
LINE
  8
256
  6
CONTINUOUS
 62
     7
 10
 104.99998474121094
 20
-109.5
 11
 200
 21
-109.5
  0
LINE
  8
256
  6
CONTINUOUS
 62
     7
 10
-193.30000000000001
 20
 136.99999721136808
 11
-193.30000000000001
 21
-139.49999999999994
  0
LINE
  8
256
  6
CONTINUOUS
 62
     7
 10
-193.30000000000001
 20
 136.99999721136808
 11
 200
 21
 136.99999721136808
  0
LINE
  8
256
  6
CONTINUOUS
 62
     7
 10
 200
 20
-139.5
 11
-193.30000000000001
 21
-139.49999999999994
  0
LINE
  8
256
  6
CONTINUOUS
 62
     7
 10
 200
 20
 136.99999721136808
 11
 200
 21
-139.5
  0
LINE
  8
0
  6
CONTINUOUS
 62
     7
 10
-48.199989318847656
 20
 76.045173645019531
 11
-65.159996032714844
 21
 76.045173645019531
  0
LINE
  8
0
  6
CONTINUOUS
 62
     7
 10
-48.199989318847656
 20
 29.045169830322266
 11
-65.159996032714844
 21
 29.045169830322266
  0
LINE
  8
0
  6
CONTINUOUS
 62
     7
 10
-64.200019836425781
 20
 76.045173645019531
 11
-64.200019836425781
 21
 29.045169830322266
  0
LINE
  8
0
  6
CONTINUOUS
 62
     7
 10
-64.200019836425781
 20
 76.045173645019531
 11
-64.976476971733348
 21
 73.147396166152333
  0
LINE
  8
0
  6
CONTINUOUS
 62
     7
 10
-64.200019836425781
 20
 76.045173645019531
 11
-63.423562701118222
 21
 73.147396166152333
  0
LINE
  8
0
  6
CONTINUOUS
 62
     7
 10
-64.200019836425781
 20
 29.045169830322266
 11
-63.423562701118222
 21
 31.942947309189471
  0
LINE
  8
0
  6
CONTINUOUS
 62
     7
 10
-64.200019836425781
 20
 29.045169830322266
 11
-64.976476971733348
 21
 31.942947309189471
  0
TEXT
  8
0
  6
CONTINUOUS
 62
     7
 10
-65.160011256534787
 20
 50.69517063697311
 11
-65.160011418266933
 21
 54.395170636973113
 40
 2
 41
 0.8
  1
47
 50
 90.000004039712721
 72
  5
  0
LINE
  8
0
  6
CONTINUOUS
 62
     7
 10
-59.199974060058594
 20
-50.454826354980469
 11
-59.199974060058594
 21
-76.454833984375
  0
LINE
  8
0
  6
CONTINUOUS
 62
     7
 10
-59.199974060058594
 20
-50.454826354980469
 11
-59.976431195366153
 21
-53.352603833847674
  0
LINE
  8
0
  6
CONTINUOUS
 62
     7
 10
-59.199974060058594
 20
-50.454826354980469
 11
-58.423516924751034
 21
-53.352603833847674
  0
LINE
  8
0
  6
CONTINUOUS
 62
     7
 10
-59.199974060058594
 20
-76.454833984375
 11
-58.423516924751034
 21
-73.557056505507802
  0
LINE
  8
0
  6
CONTINUOUS
 62
     7
 10
-59.199974060058594
 20
-76.454833984375
 11
-59.976431195366153
 21
-73.557056505507802
  0
TEXT
  8
0
  6
CONTINUOUS
 62
     7
 10
-60.159980738956669
 20
-65.554836992421428
 11
-60.159980900688815
 21
-61.854836992421419
 40
 2
 41
 0.8
  1
26
 50
 90.000004039712721
 72
  5
  0
LINE
  8
0
  6
CONTINUOUS
 62
     7
 10
-47.095359802246094
 20
-44.054836273193359
 11
-60.159980773925781
 21
-44.054836273193359
  0
LINE
  8
0
  6
CONTINUOUS
 62
     7
 10
-59.199974060058594
 20
-50.454826354980469
 11
-59.199974060058594
 21
-44.054836273193359
  0
LINE
  8
0
  6
CONTINUOUS
 62
     7
 10
-59.199974060058594
 20
-50.454826354980469
 11
-58.423516924751034
 21
-47.557048876113264
  0
LINE
  8
0
  6
CONTINUOUS
 62
     7
 10
-59.199974060058594
 20
-50.454826354980469
 11
-59.976431195366153
 21
-47.557048876113264
  0
LINE
  8
0
  6
CONTINUOUS
 62
     7
 10
-59.199974060058594
 20
-44.054836273193359
 11
-59.976431195366153
 21
-46.952613752060564
  0
LINE
  8
0
  6
CONTINUOUS
 62
     7
 10
-59.199974060058594
 20
-44.054836273193359
 11
-58.423516924751034
 21
-46.952613752060564
  0
TEXT
  8
0
  6
CONTINUOUS
 62
     7
 10
-60.159980738956669
 20
-50.154824022450718
 11
-60.15998099248273
 21
-44.354824022450728
 40
 2
 41
 0.8
  1
6.4
 50
 90.000004039712721
 72
  5
  0
LINE
  8
0
  6
CONTINUOUS
 62
     7
 10
 62.799999237060547
 20
 52.545169830322266
 11
 62.799999237060547
 21
 76.045173645019531
  0
LINE
  8
0
  6
CONTINUOUS
 62
     7
 10
 62.799999237060547
 20
 52.545169830322266
 11
 63.576456372368106
 21
 55.442947309189471
  0
LINE
  8
0
  6
CONTINUOUS
 62
     7
 10
 62.799999237060547
 20
 52.545169830322266
 11
 62.023542101752987
 21
 55.442947309189471
  0
LINE
  8
0
  6
CONTINUOUS
 62
     7
 10
 62.799999237060547
 20
 76.045173645019531
 11
 62.023542101752987
 21
 73.147396166152333
  0
LINE
  8
0
  6
CONTINUOUS
 62
     7
 10
 62.799999237060547
 20
 76.045173645019531
 11
 63.576456372368106
 21
 73.147396166152333
  0
TEXT
  8
0
  6
CONTINUOUS
 62
     7
 10
 61.840000187557003
 20
 60.345172162852016
 11
 61.83999984223702
 21
 68.245172162852015
 40
 2
 41
 0.8
  1
23.5
 50
 90.000004039712721
 72
  5
  0
LINE
  8
0
  6
CONTINUOUS
 62
     7
 10
 48.999992370605469
 20
 29.045167922973633
 11
 63.759998321533203
 21
 29.045167922973633
  0
LINE
  8
0
  6
CONTINUOUS
 62
     7
 10
 62.799999237060547
 20
 29.045167922973633
 11
 62.799999237060547
 21
 52.545162200927734
  0
LINE
  8
0
  6
CONTINUOUS
 62
     7
 10
 62.799999237060547
 20
 29.045167922973633
 11
 63.576456372368106
 21
 31.942945401840838
  0
LINE
  8
0
  6
CONTINUOUS
 62
     7
 10
 62.799999237060547
 20
 29.045167922973633
 11
 62.023542101752987
 21
 31.942945401840838
  0
LINE
  8
0
  6
CONTINUOUS
 62
     7
 10
 62.799999237060547
 20
 52.545162200927734
 11
 62.023542101752987
 21
 49.647384722060529
  0
LINE
  8
0
  6
CONTINUOUS
 62
     7
 10
 62.799999237060547
 20
 52.545162200927734
 11
 63.576456372368106
 21
 49.647384722060529
  0
TEXT
  8
0
  6
CONTINUOUS
 62
     7
 10
 61.840000187557003
 20
 36.845164533457485
 11
 61.83999984223702
 21
 44.745164533457483
 40
 2
 41
 0.8
  1
23.5
 50
 90.000004039712721
 72
  5
  0
LINE
  8
0
  6
CONTINUOUS
 62
     7
 10
-46.199989318847656
 20
 8.045170783996582
 11
 0
 21
 8.045170783996582
  0
LINE
  8
0
  6
CONTINUOUS
 62
     7
 10
-46.199989318847656
 20
 8.045170783996582
 11
-43.302211839980451
 21
 7.2687136486890198
  0
LINE
  8
0
  6
CONTINUOUS
 62
     7
 10
-46.199989318847656
 20
 8.045170783996582
 11
-43.302211839980451
 21
 8.8216279193041451
  0
LINE
  8
0
  6
CONTINUOUS
 62
     7
 10
 0
 20
 8.045170783996582
 11
-2.897777478867205
 21
 8.8216279193041451
  0
LINE
  8
0
  6
CONTINUOUS
 62
     7
 10
 0
 20
 8.045170783996582
 11
-2.897777478867205
 21
 7.2687136486890198
  0
TEXT
  8
0
  6
CONTINUOUS
 62
     7
 10
-27.050007629394532
 20
 9.0051727294921875
 11
-19.150007629394533
 21
 9.0051727294921875
 40
 2
 41
 0.8
  1
46.2
 50
 0
 72
  5
  0
LINE
  8
0
  6
CONTINUOUS
 62
     7
 10
 0
 20
 8.045170783996582
 11
 46.799991607666016
 21
 8.045170783996582
  0
LINE
  8
0
  6
CONTINUOUS
 62
     7
 10
 0
 20
 8.045170783996582
 11
 2.897777478867205
 21
 7.2687136486890198
  0
LINE
  8
0
  6
CONTINUOUS
 62
     7
 10
 0
 20
 8.045170783996582
 11
 2.897777478867205
 21
 8.8216279193041451
  0
LINE
  8
0
  6
CONTINUOUS
 62
     7
 10
 46.799991607666016
 20
 8.045170783996582
 11
 43.902214128798811
 21
 8.8216279193041451
  0
LINE
  8
0
  6
CONTINUOUS
 62
     7
 10
 46.799991607666016
 20
 8.045170783996582
 11
 43.902214128798811
 21
 7.2687136486890198
  0
TEXT
  8
0
  6
CONTINUOUS
 62
     7
 10
 19.449992370605468
 20
 9.0051727294921875
 11
 27.349992370605467
 21
 9.0051727294921875
 40
 2
 41
 0.8
  1
46.8
 50
 0
 72
  5
  0
LINE
  8
0
  6
CONTINUOUS
 62
     7
 10
-59.700019836425781
 20
 65.045173645019531
 11
-60.160011291503906
 21
 65.045173645019531
  0
LINE
  8
0
  6
CONTINUOUS
 62
     7
 10
-59.200019836425781
 20
 76.045173645019531
 11
-59.200019836425781
 21
 65.045173645019531
  0
LINE
  8
0
  6
CONTINUOUS
 62
     7
 10
-59.200019836425781
 20
 76.045173645019531
 11
-59.976476971733341
 21
 73.147396166152333
  0
LINE
  8
0
  6
CONTINUOUS
 62
     7
 10
-59.200019836425781
 20
 76.045173645019531
 11
-58.423562701118222
 21
 73.147396166152333
  0
LINE
  8
0
  6
CONTINUOUS
 62
     7
 10
-59.200019836425781
 20
 65.045173645019531
 11
-58.423562701118222
 21
 67.942951123886729
  0
LINE
  8
0
  6
CONTINUOUS
 62
     7
 10
-59.200019836425781
 20
 65.045173645019531
 11
-59.976476971733341
 21
 67.942951123886729
  0
TEXT
  8
0
  6
CONTINUOUS
 62
     7
 10
-60.160011256534794
 20
 68.695170636973103
 11
-60.16001141826694
 21
 72.395170636973106
 40
 2
 41
 0.8
  1
11
 50
 90.000004039712721
 72
  5
  0
LINE
  8
0
  6
CONTINUOUS
 62
     7
 10
-59.700019836425781
 20
 40.045166015625
 11
-60.160011291503906
 21
 40.045166015625
  0
LINE
  8
0
  6
CONTINUOUS
 62
     7
 10
-59.200019836425781
 20
 65.045173645019531
 11
-59.200019836425781
 21
 40.045166015625
  0
LINE
  8
0
  6
CONTINUOUS
 62
     7
 10
-59.200019836425781
 20
 65.045173645019531
 11
-59.976476971733341
 21
 62.147396166152326
  0
LINE
  8
0
  6
CONTINUOUS
 62
     7
 10
-59.200019836425781
 20
 65.045173645019531
 11
-58.423562701118222
 21
 62.147396166152326
  0
LINE
  8
0
  6
CONTINUOUS
 62
     7
 10
-59.200019836425781
 20
 40.045166015625
 11
-58.423562701118222
 21
 42.942943494492205
  0
LINE
  8
0
  6
CONTINUOUS
 62
     7
 10
-59.200019836425781
 20
 40.045166015625
 11
-59.976476971733341
 21
 42.942943494492205
  0
TEXT
  8
0
  6
CONTINUOUS
 62
     7
 10
-60.160011256534794
 20
 50.695166822275844
 11
-60.16001141826694
 21
 54.395166822275847
 40
 2
 41
 0.8
  1
25
 50
 90.000004039712721
 72
  5
  0
LINE
  8
0
  6
CONTINUOUS
 62
     7
 10
-59.200019836425781
 20
 40.045166015625
 11
-59.200019836425781
 21
 29.045169830322266
  0
LINE
  8
0
  6
CONTINUOUS
 62
     7
 10
-59.200019836425781
 20
 40.045166015625
 11
-59.976476971733341
 21
 37.147388536757795
  0
LINE
  8
0
  6
CONTINUOUS
 62
     7
 10
-59.200019836425781
 20
 40.045166015625
 11
-58.423562701118222
 21
 37.147388536757795
  0
LINE
  8
0
  6
CONTINUOUS
 62
     7
 10
-59.200019836425781
 20
 29.045169830322266
 11
-58.423562701118222
 21
 31.942947309189471
  0
LINE
  8
0
  6
CONTINUOUS
 62
     7
 10
-59.200019836425781
 20
 29.045169830322266
 11
-59.976476971733341
 21
 31.942947309189471
  0
TEXT
  8
0
  6
CONTINUOUS
 62
     7
 10
-60.160011256534794
 20
 32.695166822275844
 11
-60.16001141826694
 21
 36.395166822275847
 40
 2
 41
 0.8
  1
11
 50
 90.000004039712721
 72
  5
  0
LINE
  8
0
  6
CONTINUOUS
 62
     7
 10
 34.799964904785156
 20
-78.454833984375
 11
 34.799964904785156
 21
-87.414840698242187
  0
LINE
  8
0
  6
CONTINUOUS
 62
     7
 10
 39.999992370605469
 20
-78.445991516113281
 11
 39.999992370605469
 21
-87.414840698242187
  0
LINE
  8
0
  6
CONTINUOUS
 62
     7
 10
 34.799964904785156
 20
-86.454841613769531
 11
 39.999992370605469
 21
-86.454841613769531
  0
LINE
  8
0
  6
CONTINUOUS
 62
     7
 10
 34.799964904785156
 20
-86.454841613769531
 11
 37.697742383652361
 21
-87.231298749077098
  0
LINE
  8
0
  6
CONTINUOUS
 62
     7
 10
 34.799964904785156
 20
-86.454841613769531
 11
 37.697742383652361
 21
-85.678384478461965
  0
LINE
  8
0
  6
CONTINUOUS
 62
     7
 10
 39.999992370605469
 20
-86.454841613769531
 11
 37.102214891738264
 21
-85.678384478461965
  0
LINE
  8
0
  6
CONTINUOUS
 62
     7
 10
 39.999992370605469
 20
-86.454841613769531
 11
 37.102214891738264
 21
-87.231298749077098
  0
TEXT
  8
0
  6
CONTINUOUS
 62
     7
 10
 34.749980163574222
 20
-85.494850158691406
 11
 39.549980163574219
 21
-85.494850158691406
 40
 2
 41
 0.8
  1
5.2
 50
 0
 72
  5
  0
LINE
  8
0
  6
CONTINUOUS
 62
     7
 10
 46.799980163574219
 20
-78.454833984375
 11
 46.799980163574219
 21
-87.414840698242187
  0
LINE
  8
0
  6
CONTINUOUS
 62
     7
 10
 39.999992370605469
 20
-86.454841613769531
 11
 46.799980163574219
 21
-86.454841613769531
  0
LINE
  8
0
  6
CONTINUOUS
 62
     7
 10
 39.999992370605469
 20
-86.454841613769531
 11
 42.897769849472674
 21
-87.231298749077098
  0
LINE
  8
0
  6
CONTINUOUS
 62
     7
 10
 39.999992370605469
 20
-86.454841613769531
 11
 42.897769849472674
 21
-85.678384478461965
  0
LINE
  8
0
  6
CONTINUOUS
 62
     7
 10
 46.799980163574219
 20
-86.454841613769531
 11
 43.902202684707014
 21
-85.678384478461965
  0
LINE
  8
0
  6
CONTINUOUS
 62
     7
 10
 46.799980163574219
 20
-86.454841613769531
 11
 43.902202684707014
 21
-87.231298749077098
  0
TEXT
  8
0
  6
CONTINUOUS
 62
     7
 10
 40.749995422363284
 20
-85.494850158691406
 11
 45.549995422363281
 21
-85.494850158691406
 40
 2
 41
 0.8
  1
6.8
 50
 0
 72
  5
  0
LINE
  8
0
  6
CONTINUOUS
 62
     7
 10
 34.799964904785156
 20
-86.954833984375
 11
 34.799964904785156
 21
-92.414833068847656
  0
LINE
  8
0
  6
CONTINUOUS
 62
     7
 10
 46.799980163574219
 20
-86.954833984375
 11
 46.799980163574219
 21
-92.414833068847656
  0
LINE
  8
0
  6
CONTINUOUS
 62
     7
 10
 34.799964904785156
 20
-91.454841613769531
 11
 46.799980163574219
 21
-91.454841613769531
  0
LINE
  8
0
  6
CONTINUOUS
 62
     7
 10
 34.799964904785156
 20
-91.454841613769531
 11
 37.697742383652361
 21
-92.231298749077098
  0
LINE
  8
0
  6
CONTINUOUS
 62
     7
 10
 34.799964904785156
 20
-91.454841613769531
 11
 37.697742383652361
 21
-90.678384478461965
  0
LINE
  8
0
  6
CONTINUOUS
 62
     7
 10
 46.799980163574219
 20
-91.454841613769531
 11
 43.902202684707014
 21
-90.678384478461965
  0
LINE
  8
0
  6
CONTINUOUS
 62
     7
 10
 46.799980163574219
 20
-91.454841613769531
 11
 43.902202684707014
 21
-92.231298749077098
  0
TEXT
  8
0
  6
CONTINUOUS
 62
     7
 10
 38.949969482421878
 20
-90.494842529296875
 11
 42.649969482421881
 21
-90.494842529296875
 40
 2
 41
 0.8
  1
12
 50
 0
 72
  5
  0
LINE
  8
0
  6
CONTINUOUS
 62
     7
 10
 39.999992370605469
 20
-45.454833984375
 11
 0
 21
-45.454833984375
  0
LINE
  8
0
  6
CONTINUOUS
 62
     7
 10
 39.999992370605469
 20
-45.454833984375
 11
 37.102214891738264
 21
-44.67837684906744
  0
LINE
  8
0
  6
CONTINUOUS
 62
     7
 10
 39.999992370605469
 20
-45.454833984375
 11
 37.102214891738264
 21
-46.23129111968256
  0
LINE
  8
0
  6
CONTINUOUS
 62
     7
 10
 0
 20
-45.454833984375
 11
 2.897777478867205
 21
-46.23129111968256
  0
LINE
  8
0
  6
CONTINUOUS
 62
     7
 10
 0
 20
-45.454833984375
 11
 2.897777478867205
 21
-44.67837684906744
  0
TEXT
  8
0
  6
CONTINUOUS
 62
     7
 10
 18.149996948242187
 20
-44.494834899902344
 11
 21.849996948242186
 21
-44.494834899902344
 40
 2
 41
 0.8
  1
40
 50
 0
 72
  5
  0
LINE
  8
0
  6
CONTINUOUS
 62
     7
 10
-35.000007629394531
 20
-45.454833984375
 11
 0
 21
-45.454833984375
  0
LINE
  8
0
  6
CONTINUOUS
 62
     7
 10
-35.000007629394531
 20
-45.454833984375
 11
-32.102230150527326
 21
-46.23129111968256
  0
LINE
  8
0
  6
CONTINUOUS
 62
     7
 10
-35.000007629394531
 20
-45.454833984375
 11
-32.102230150527326
 21
-44.67837684906744
  0
LINE
  8
0
  6
CONTINUOUS
 62
     7
 10
 0
 20
-45.454833984375
 11
-2.897777478867205
 21
-44.67837684906744
  0
LINE
  8
0
  6
CONTINUOUS
 62
     7
 10
 0
 20
-45.454833984375
 11
-2.897777478867205
 21
-46.23129111968256
  0
TEXT
  8
0
  6
CONTINUOUS
 62
     7
 10
-19.350010681152344
 20
-44.494834899902344
 11
-15.650010681152345
 21
-44.494834899902344
 40
 2
 41
 0.8
  1
35
 50
 0
 72
  5
  0
LINE
  8
0
  6
CONTINUOUS
 62
     7
 10
-46.199989318847656
 20
 3.0451736450195312
 11
 46.799991607666016
 21
 3.0451736450195312
  0
LINE
  8
0
  6
CONTINUOUS
 62
     7
 10
-46.199989318847656
 20
 3.0451736450195312
 11
-43.302211839980451
 21
 2.268716509711969
  0
LINE
  8
0
  6
CONTINUOUS
 62
     7
 10
-46.199989318847656
 20
 3.0451736450195312
 11
-43.302211839980451
 21
 3.8216307803270935
  0
LINE
  8
0
  6
CONTINUOUS
 62
     7
 10
 46.799991607666016
 20
 3.0451736450195312
 11
 43.902214128798811
 21
 3.8216307803270935
  0
LINE
  8
0
  6
CONTINUOUS
 62
     7
 10
 46.799991607666016
 20
 3.0451736450195312
 11
 43.902214128798811
 21
 2.268716509711969
  0
TEXT
  8
0
  6
CONTINUOUS
 62
     7
 10
-1.55
 20
 4.0051755905151367
 11
 2.1500000000000004
 21
 4.0051755905151367
 40
 2
 41
 0.8
  1
93
 50
 0
 72
  5
  0
LINE
  8
0
  6
CONTINUOUS
 62
     7
 10
 33.234275817871094
 20
 54.545162200927734
 11
 18.839988708496094
 21
 54.545162200927734
  0
LINE
  8
0
  6
CONTINUOUS
 62
     7
 10
 33.234275817871094
 20
 50.545166015625
 11
 18.839988708496094
 21
 50.545166015625
  0
LINE
  8
0
  6
CONTINUOUS
 62
     7
 10
 19.799995422363281
 20
 54.545162200927734
 11
 19.799995422363281
 21
 50.545166015625
  0
LINE
  8
0
  6
CONTINUOUS
 62
     7
 10
 19.799995422363281
 20
 54.545162200927734
 11
 19.023538287055718
 21
 51.647384722060529
  0
LINE
  8
0
  6
CONTINUOUS
 62
     7
 10
 19.799995422363281
 20
 54.545162200927734
 11
 20.576452557670844
 21
 51.647384722060529
  0
LINE
  8
0
  6
CONTINUOUS
 62
     7
 10
 19.799995422363281
 20
 50.545166015625
 11
 20.576452557670844
 21
 53.442943494492205
  0
LINE
  8
0
  6
CONTINUOUS
 62
     7
 10
 19.799995422363281
 20
 50.545166015625
 11
 19.023538287055718
 21
 53.442943494492205
  0
TEXT
  8
0
  6
CONTINUOUS
 62
     7
 10
 18.839988743465202
 20
 51.745166059336384
 11
 18.839988673526982
 21
 53.345166059336393
 40
 2
 41
 0.8
  1
4
 50
 90.000004039712721
 72
  5
  0
LINE
  8
0
  6
CONTINUOUS
 62
     7
 10
-59.699989318847656
 20
-44.054836273193359
 11
-65.159996032714844
 21
-44.054836273193359
  0
LINE
  8
0
  6
CONTINUOUS
 62
     7
 10
-59.699989318847656
 20
-76.454833984375
 11
-65.159996032714844
 21
-76.454833984375
  0
LINE
  8
0
  6
CONTINUOUS
 62
     7
 10
-64.199989318847656
 20
-44.054836273193359
 11
-64.199989318847656
 21
-76.454833984375
  0
LINE
  8
0
  6
CONTINUOUS
 62
     7
 10
-64.199989318847656
 20
-44.054836273193359
 11
-64.976446454155223
 21
-46.952613752060564
  0
LINE
  8
0
  6
CONTINUOUS
 62
     7
 10
-64.199989318847656
 20
-44.054836273193359
 11
-63.423532183540097
 21
-46.952613752060564
  0
LINE
  8
0
  6
CONTINUOUS
 62
     7
 10
-64.199989318847656
 20
-76.454833984375
 11
-63.423532183540097
 21
-73.557056505507802
  0
LINE
  8
0
  6
CONTINUOUS
 62
     7
 10
-64.199989318847656
 20
-76.454833984375
 11
-64.976446454155223
 21
-73.557056505507802
  0
TEXT
  8
0
  6
CONTINUOUS
 62
     7
 10
-65.159995997745725
 20
-64.204830888905803
 11
-65.159996343065714
 21
-56.304830888905805
 40
 2
 41
 0.8
  1
32.4
 50
 90.000004039712721
 72
  5
  0
LINE
  8
0
  6
CONTINUOUS
 62
     7
 10
 40.000007629394531
 20
 43.557708740234375
 11
 40.000007629394531
 21
 17.085174560546875
  0
LINE
  8
0
  6
CONTINUOUS
 62
     7
 10
 46.799991607666016
 20
 18.045177459716797
 11
 40.000007629394531
 21
 18.045177459716797
  0
LINE
  8
0
  6
CONTINUOUS
 62
     7
 10
 46.799991607666016
 20
 18.045177459716797
 11
 43.902214128798811
 21
 18.82163459502436
  0
LINE
  8
0
  6
CONTINUOUS
 62
     7
 10
 46.799991607666016
 20
 18.045177459716797
 11
 43.902214128798811
 21
 17.268720324409234
  0
LINE
  8
0
  6
CONTINUOUS
 62
     7
 10
 40.000007629394531
 20
 18.045177459716797
 11
 42.897785108261736
 21
 17.268720324409234
  0
LINE
  8
0
  6
CONTINUOUS
 62
     7
 10
 40.000007629394531
 20
 18.045177459716797
 11
 42.897785108261736
 21
 18.82163459502436
  0
TEXT
  8
0
  6
CONTINUOUS
 62
     7
 10
 40.499995422363284
 20
 19.005180358886719
 11
 46.299995422363281
 21
 19.005180358886719
 40
 2
 41
 0.8
  1
6.8
 50
 0
 72
  5
  0
LINE
  8
0
  6
CONTINUOUS
 62
     7
 10
-30.700035095214844
 20
-77.628227233886719
 11
-30.700035095214844
 21
-92.414833068847656
  0
LINE
  8
0
  6
CONTINUOUS
 62
     7
 10
-46.200019836425781
 20
-91.454841613769531
 11
-30.700035095214844
 21
-91.454841613769531
  0
LINE
  8
0
  6
CONTINUOUS
 62
     7
 10
-46.200019836425781
 20
-91.454841613769531
 11
-43.302242357558576
 21
-92.231298749077098
  0
LINE
  8
0
  6
CONTINUOUS
 62
     7
 10
-46.200019836425781
 20
-91.454841613769531
 11
-43.302242357558576
 21
-90.678384478461965
  0
LINE
  8
0
  6
CONTINUOUS
 62
     7
 10
-30.700035095214844
 20
-91.454841613769531
 11
-33.597812574082049
 21
-90.678384478461965
  0
LINE
  8
0
  6
CONTINUOUS
 62
     7
 10
-30.700035095214844
 20
-91.454841613769531
 11
-33.597812574082049
 21
-92.231298749077098
  0
TEXT
  8
0
  6
CONTINUOUS
 62
     7
 10
-42.400028991699216
 20
-90.494842529296875
 11
-34.500028991699217
 21
-90.494842529296875
 40
 2
 41
 0.8
  1
15.5
 50
 0
 72
  5
  0
LINE
  8
0
  6
CONTINUOUS
 62
     7
 10
-35.000007629394531
 20
 36.239006042480469
 11
-35.000007629394531
 21
 17.085174560546875
  0
LINE
  8
0
  6
CONTINUOUS
 62
     7
 10
-46.199989318847656
 20
 18.045173645019531
 11
-35.000007629394531
 21
 18.045173645019531
  0
LINE
  8
0
  6
CONTINUOUS
 62
     7
 10
-46.199989318847656
 20
 18.045173645019531
 11
-43.302211839980451
 21
 17.268716509711968
  0
LINE
  8
0
  6
CONTINUOUS
 62
     7
 10
-46.199989318847656
 20
 18.045173645019531
 11
-43.302211839980451
 21
 18.821630780327094
  0
LINE
  8
0
  6
CONTINUOUS
 62
     7
 10
-35.000007629394531
 20
 18.045173645019531
 11
-37.897785108261736
 21
 18.821630780327094
  0
LINE
  8
0
  6
CONTINUOUS
 62
     7
 10
-35.000007629394531
 20
 18.045173645019531
 11
-37.897785108261736
 21
 17.268716509711968
  0
TEXT
  8
0
  6
CONTINUOUS
 62
     7
 10
-44.549992370605466
 20
 19.005172729492188
 11
-36.649992370605467
 21
 19.005172729492188
 40
 2
 41
 0.8
  1
11.2
 50
 0
 72
  5
  0
LINE
  8
0
  6
CONTINUOUS
 62
     7
 10
-35.000007629394531
 20
 18.045177459716797
 11
 40.000007629394531
 21
 18.045177459716797
  0
LINE
  8
0
  6
CONTINUOUS
 62
     7
 10
-35.000007629394531
 20
 18.045177459716797
 11
-32.102230150527326
 21
 17.268720324409234
  0
LINE
  8
0
  6
CONTINUOUS
 62
     7
 10
-35.000007629394531
 20
 18.045177459716797
 11
-32.102230150527326
 21
 18.82163459502436
  0
LINE
  8
0
  6
CONTINUOUS
 62
     7
 10
 40.000007629394531
 20
 18.045177459716797
 11
 37.102230150527326
 21
 18.82163459502436
  0
LINE
  8
0
  6
CONTINUOUS
 62
     7
 10
 40.000007629394531
 20
 18.045177459716797
 11
 37.102230150527326
 21
 17.268720324409234
  0
TEXT
  8
0
  6
CONTINUOUS
 62
     7
 10
 0.6499969482421875
 20
 19.005176544189453
 11
 4.3499969482421879
 21
 19.005176544189453
 40
 2
 41
 0.8
  1
75
 50
 0
 72
  5
  0
ENDSEC
  0
EOF
